MUZBANK


МУЗЫКАЛЬНО-ИНФОРМАЦИОННЫЙ БАНК





CCranberries • When Youe Gone (аккорды и текст - chords & lyrics)


459

Print

Видео «When Youe Gone (Cranberries)»

Видео клипы к песне подбираются автоматически сайтом youtube. Возможны некоторые несоответствия клипов песне.

↑ Спрятать рекламу ↑





Intro – 0:12
|-----3-530-530-|---------------|---------------|---------------|
|---------------|-1------1-1----|---------------|---------------|
|---------------|---------------|-3------3-3----|---------------|
|---------------|---------------|---------------|-3-----3-3-----|

|---------------|
|-------------0-|
|-1-----11—13---|
|---------------|


Verse 1 – 0:30
|--------------|---------------|---------------|---------------|
|-1------1-1---|---------------|---------------|-------------0-|
|--------------|-3------3-3----|---------------|-1-----11—13---|
|--------------|---------------|-3-----3-3-----|---------------|

|--------------|---------------|---------------|---------------|
|-1------1-1---|---------------|---------------|-------------0-|
|--------------|-3------3-3----|---------------|-1-----11—13---|
|--------------|---------------|-3-----3-3-----|---------------|

|--------------|---------------|---------------|---------------|
|-1------1-1---|---------------|---------------|-------------0-|
|--------------|-3------3-3----|---------------|-1-----11—13---|
|--------------|---------------|-3-----3-3-----|---------------|

|--------------|---------------|---------------|---------------|
|-1------1-1---|---------------|---------------|-------------0-|
|--------------|-3------3-3----|---------------|-1-----11—13---|
|--------------|---------------|-3-----3-3-----|---------------|


Chorus – 1:31 hey,hey,hey
|------------03|---------------|---------------|---------------|
|-1----1-1--3--|------------0--|---------------|--------------0|
|--------------|-3----3-3--3-31|---------------|------------13-|
|--------------|---------------|-3----3-3--3--3|-4-------------|
hey,hey,hey
|------------03|---------------|---------------|---------------|
|-1---1-1--13--|------------0--|---------------|--------------0|
|--------------|-3----3-3--3-31|---------------|------------13-|
|--------------|---------------|-3----3-3--3--3|-4---44--44--44|


Bridge – 2:02
|------------03|---------------|---------------|---------------|
|-1---1-1--13--|------------0--|---------------|--------------0|
|--------------|-3----3-3--3-31|---------------|------------13-|
|--------------|---------------|-3----3-3--3--3|-4-----4-4-----|


Verse 2 – 2:17
|--------------|---------------|---------------|---------------|
|-1------1-1---|---------------|---------------|-------------0-|
|--------------|-3------3-3----|---------------|-1-----11—13---|
|--------------|---------------|-3-----3-3-----|---------------|

|--------------|---------------|---------------|---------------|
|-1------1-1---|---------------|---------------|-------------0-|
|--------------|-3------3-3----|---------------|-1-----11—13---|
|--------------|---------------|-3-----3-3-----|---------------|

|--------------|---------------|---------------|---------------|
|-1------1-1---|---------------|---------------|-------------0-|
|--------------|-3------3-3----|---------------|-1-----11—13---|
|--------------|---------------|-3-----3-3-----|---------------|

|--------------|---------------|---------------|---------------|
|-1------1-1---|---------------|---------------|-------------0-|
|--------------|-3------3-3----|---------------|-1-----11—13---|
|--------------|---------------|-3-----3-3-----|---------------|


Chorus – 3:19 hey, hey, hey
|------------03|---------------|---------------|---------------|
|-1----1-1--3--|------------0--|---------------|--------------0|
|--------------|-3----3-3--3-31|---------------|------------13-|
|--------------|---------------|-3----3-3--3—3-|4---44--44—44--|

|------------03|---------------|---------------|---------------|
|-1---1-1--13--|------------0--|---------------|--------------0|
|--------------|-3----3-3--3-31|---------------|------------13-|
|--------------|---------------|-3----3-3--3--3|-4---44--44--44|


Outro – 3:50 hey,hey,hey
|------------03|---------------|---------------|---------------|
|-1---1-1--13--|------------0--|---------------|---------------|
|--------------|-3----3-3--3-31|---------------|---------------|
|--------------|---------------|-3----3-3--3--3|-4---44--44--44|

hey,hey,hey
|------------03|---------------|---------------|---------------|
|-1---1-1--13--|------------0--|---------------|---------------|
|--------------|-3----3-3--3-31|---------------|---------------|
|--------------|---------------|-3----3-3--3--3|-4---44--44—-44|

|------------03|---------------|---------------|---------------|
|-1---1-1--13--|------------0--|---------------|---------------|
|--------------|-3----3-3--3-31|---------------|---------------|
|--------------|---------------|-3----3-3--3--3|-4---44--44—-44|

Begin Fade Out
|------------03|---------------|---------------|
|-1---1-1--13--|------------0--|---------------|
|--------------|-3----3-3--3-31|---------------|
|--------------|---------------|-3----3-3--3--3|

Тональность:

Это должно быть в ТОП-листе! - Топ-лист композиций



Назад
Рекомендуем посмотреть другие песни исполнителя «Cranberries»:

  • Комменты Fb ()
  • Комменты ВК



Добавить в Избранное Браузера
Сохранить здесь Очистить


x

0


+
-

+
-

-

Авторизация





Зарегистрироваться

M

Дата и время

  • 00:01:13
     

Социальные ссылки


Наши приложения

  • Muzbank App Play Market
  • Muzbank Amazon App