MUZBANK



A MOST COMPLETE BANK OF MUSIC INFORMATION

МУЗЫКАЛЬНО-ИНФОРМАЦИОННЫЙ БАНК







    DD A D • Road Below Me (аккорды и текст - chords & lyrics)


    302

    Print

    Видео «Road Below Me (D A D)»

    Видео клипы к песне подбираются автоматически сайтом youtube. Возможны некоторые несоответствия клипов песне.

    ↑ Спрятать рекламу ↑





     
    
    
    This is a very good song by d-a-d
    easy to play.
    
    Everything Glows:
    
    The Road Below Me.
    
    Intro:
    E|----------------------------------|
    B|----------------------------------|
    G|-7-7-5h7h5------------------------|
    D|-----------7-7-3-3-3-5-5-3h5h3----|
    A|-------------------------------5~~|
    E|----------------------------------|
    
    
    E|----------------------------------|
    B|----------------------------------|
    G|-7-7-5h7h5------------------------|
    D|-----------7-7-3-3-3-5-5-3h5-3-3--|
    A|----------------------------------|
    E|----------------------------------|
    
    
    Intro 2/verse:
    
    D5-F5-Eb5-Bb5-
    
    
    Chorus:
    
    G5-C5-A5-(A5-G5-E5)
    
    play (A5-G5-E5) like this:
    
    e:-----------|
    b:-----------|
    g:-----------|
    d:--7-5-2-2--|
    a:--7-5-2-2--|
    d:--7-5-2-2--|
     

    Тональность:

    Это должно быть в ТОП-листе! - Топ-лист композиций



    Назад
    Рекомендуем посмотреть другие песни исполнителя «D A D»:

    • Комменты Fb ()
    • Комменты ВК



    Добавить в Избранное Браузера
    Сохранить здесь Очистить


    x

    0


    +
    -

    +
    -

    -

    Авторизация





    Зарегистрироваться

    M

    Дата и время

    • 09:31:06
       

    Социальные ссылки


    Наши приложения

    • Muzbank App Play Market
    • Muzbank Amazon App