MUZBANK


МУЗЫКАЛЬНО-ИНФОРМАЦИОННЫЙ БАНК





ДДДТ • Это все (аккорды и текст - chords & lyrics)


3404

Print

Видео «Это все (ДДТ)»

Видео клипы к песне подбираются автоматически сайтом youtube. Возможны некоторые несоответствия клипов песне.

↑ Спрятать рекламу ↑






Проигрыш
|-3-------3-------2-------2-------0-------0---------0-----2-|
|-3-3-----3-3-----3-3---3-3-3---3-1-1-----1-1-----1---1---3-|
|-0---0---0---0---2---2---2---2---0---0---0---0---2-----2-2-|
|-0-----0-0-----0-0-------0-------2-----2-2-----2-2-------0-|
|-2-------2-----------------------3-------3-------0---------|
|-3-------3-------------------------------------------------|

G,D,Em,C,D - перебор
|---------| |---------| |---------| |---------| |-------2Н3Н2-|
|---------| |---------| |---------| |---------| |-----3-------|
|-----0---| |-----2---| |-----0---| |-----0---| |---2---------|
|---0---0-| |---0---0-| |---2---2-| |---2---2-| |-0-----------|
|---------| |-0-------| |---------| |-3-------| |-------------|
|-3-------| |---------| |-0-------| |---------| |-------------|

       G(s)                    D(s)
Побледневшие листья окна зарастают прозрачной водой.
     Em(s)                          C(s)      D(s1)
У воды нет ни смерти, ни дна. Я прощаюсь с тобой.
Горсть тепла после долгой зимы - донесем.
Пять минут до утра - доживем.
Наше море вины поглощает время-дыра

Припев
             G         D     Em          C  D
    Это все, что останется после меня,
         G           D           C     D
    Это все, что возьму я с собой.

      |3|                |3-2-0-|       |2|       |2-3-2-0-2-|
      |3|                |3-3-3-|       |3|       |3-3-3-3-3-|
      |0|                |0-0-0-|       |2|       |2-2-2-2-2-|
      |0|                |0-0---|       |0|       |0-0-0-0-0-|
      |2|                |2-----|       |-|       |----------|
      |3|                |3-----|       |-|       |----------|
Две мечты и печали стакан        мы, воскреснув, допили до дна.
      |0|                |3-2-0|        |3|
      |0|                |0-0-0|        |1|
      |0|                |0-0-0|        |0|
      |2|                |2-2-2|        |2|
      |2|                |2-2-2|        |3|
      |0|                |0-0-0|        |-|            D(s1)
Я не знаю, зачем тебе дан правит мною дорога-луна.
И не плачь, если можешь - прости.
Жизнь не сахар, а смерть нам не - чай.
Мне свою дорогу нести. До свиданья, друг, и прощай.

Припев 2 (раза)

С нами память сидит у стола, а в руке ее пламя свечи.
Ты такой хорошей была, посмотри на меня, не молчи.
Крики чайки на белой стене окольцованной черной луной.
Нарисуй что-нибудь на окне и шепни на прощанье рекой.

Припев 2 (раза)

Тональность:

Это должно быть в ТОП-листе! - Топ-лист композиций



Назад
Рекомендуем посмотреть другие песни исполнителя «ДДТ»:

  • Комменты Fb ()
  • Комменты ВК



Добавить в Избранное Браузера
Сохранить здесь Очистить


x

0


+
-

+
-

-

Авторизация





Зарегистрироваться

M

Дата и время

  • 15:01:41
     

Социальные ссылки


Наши приложения

  • Muzbank App Play Market
  • Muzbank Amazon App