MUZBANK


МУЗЫКАЛЬНО-ИНФОРМАЦИОННЫЙ БАНК





ДДДТ • Свобода (аккорды и текст - chords & lyrics)


1609

Print

Видео «Свобода (ДДТ)»

Видео клипы к песне подбираются автоматически сайтом youtube. Возможны некоторые несоответствия клипов песне.

↑ Спрятать рекламу ↑






  Am7      Dm/F       Fmaj7     E
Я еду к тебе - это странное место
  Am7      Dm/F         C      E
Туман на болоте без цвета и дна
Я твой вечный жених, золотая невеста
Лижут мысли, как мухи, стекла окна

Зима на спине, я не стар и не молод
Ночь похожа на лифт, в котором умер поэт

Я по уши сыт, да разбудил горький голод
Руки чувствуют пульс, я зеваю на свет

/припев/
 Am    D/F#    C      E7
 Мама, разбуди черным вечером
 Мама, чтоб я ночь не проспал
 Мама, я уйду, как намечено,
 Мама, мама, мама как я устал

Гроза по глазам - напротив морщинами
Скребет по стеклу седая рука
Мимо павших идей проплывают причинами
В тумане чуть видимы ветви века

Растет за окном последняя станция
Здесь отпевают верхний этаж
Здравствуй, любовь, получи информацию
Да не промахнись и сотри макияж

 Мама, разбуди черным вечером
 Мама, чтоб я ночь не проспал
 Мама, я уйду, как намечено,
 Мама, мама, мама как я устал


Вступление и 1-й куплет:
1|-------0--------------------------------------------|
2|---------1----------3----------1-----------0^1^0----|  
3|-----2-----2------2---2------2---2-------0-------0--| 
4|----------------3----------3------------------------|
5|---0------------------------------------------------|
6|---------------------------------------3------------|

1|-------0----------------------------------------------0-|
2|---------1----------3----------1-----------0-1^0------3-|
3|-----2-----2------2---2------2---2-------0-------0----4-|
4|----------------3----------3--------------------------5-|
5|---0----------------------------------------------------|
6|---------------------------------------3----------------|



Припев:		
1|-------0-----------------------0----------------0-------|
2|---------1----------3------------1------------0---0-----|
3|-----2-----2------2---2------0-----0-------1^2------1---|
4|--------------------------------------------------------|
5|--0-----------------------------------------------------|
6|----------------2----------3-------------0--------------|



Соло:		
1|--------0---------0----------------0-----|--------0---------7-0------------
2|------0---6---------6------------3---3---|------0---6-----------6----------
3|----5-------5---5-----5------4^5-------4-|----5-------5---5-------5--------
4|--7-----------7---------7--5-------------|--7-----------7------------------
5|-----------------------------------------|---------------------------------
6|-----------------------------------------|---------------------------------

--------5-----|--------0---------0----------------0-----|--------0-----------
------3---3---|------0---6---------6------------3---3---|------0---6---------
----4-------4-|----5-------5---5-----5------4^5-------4-|----5-------5---5---
--5-----------|--7-----------7---------7--5-------------|--7-----------7-----
--------------|-----------------------------------------|--------------------
--------------|-----------------------------------------|--------------------

--0----------0---|
----6--------3---|   
------5------4---|
--------7----5---|
-----------------|
-----------------|

Тональность:

Это должно быть в ТОП-листе! - Топ-лист композиций



Назад
Рекомендуем посмотреть другие песни исполнителя «ДДТ»:

  • Комменты Fb ()
  • Комменты ВК



Добавить в Избранное Браузера
Сохранить здесь Очистить


x

0


+
-

+
-

-

Авторизация





Зарегистрироваться

M

Дата и время

  • 05:49:02
     

Социальные ссылки


Наши приложения

  • Muzbank App Play Market
  • Muzbank Amazon App