MUZBANK


МУЗЫКАЛЬНО-ИНФОРМАЦИОННЫЙ БАНК





DDeep Purple • Demons Eye (аккорды и текст - chords & lyrics)


705

Print

Видео «Demons Eye (Deep Purple)»

Видео клипы к песне подбираются автоматически сайтом youtube. Возможны некоторые несоответствия клипов песне.

↑ Спрятать рекламу ↑





First riff:
e|------------------|
B|------------------|
G|----3-------------|
D|-0----5-----------|
A|----------5-------|
E|------------6-3-3-|

Second riff:
e|------------------|
B|----4-------------|
G|-0----5-----------|
D|----------5-------|
A|------------6-3-3-|
E|------------------|

"Chorus" riff:

     Sly (ay`s)                        like a demond`s eye.
e|-------------------------------------------------------------|
B|-------------------------------------------------------------|
G|-10-12----1012--710--57--35-------------------means slide----|
D|-10-12------------------------3--5-------------------------to|
A|-----------------------------------3--5----------------------|
E|-------------------------------------------------------------|

The song will be something like this:

verse 1:

(Riff 1)     (Riff 1)
Now, I don`t mind just what you say.
(Riff 1)          (Riff 1)
I never hurt you babe, never hurt you any way.
(Riff 2)     (Riff 2)
No, I don`t care, what you do
(Riff 1)    (Riff 1)
Just as long as it ain`t me and you.

"chorus":

sly, (lots of "ay"s) like a demond`s eye.....

Verse 2:
Now everything`s good, I said that everything`s fine.
You don`t know, you don`t know, It`s the end of your time.
How does it feel to be turned away?
I`ve known it baby, almost every day.

"chorus"

- Organ solo -

Verse 3:

I don`t need you, a- anymore
I don`t want you babe, a- hanging `round my door
You slip`n`slide, around my brain
If you think you`re so clever, She`d (?) know  you`re insane.

"chorus"

- guitar solo -

Verse 4:

I don`t mind, a-just what you say.
I never hurt you anyway
Everything`s good, and everything`s fine
You don`t know it`s the end of your time

"chorus"

Тональность:

Это должно быть в ТОП-листе! - Топ-лист композиций



Назад
Рекомендуем посмотреть другие песни исполнителя «Deep Purple»:

  • Комменты Fb ()
  • Комменты ВК



Добавить в Избранное Браузера
Сохранить здесь Очистить


x

0


+
-

+
-

-

Авторизация





Зарегистрироваться

M

Дата и время

  • 18:41:47
     

Социальные ссылки


Наши приложения

  • Muzbank App Play Market
  • Muzbank Amazon App