MUZBANK


МУЗЫКАЛЬНО-ИНФОРМАЦИОННЫЙ БАНК





DDeep Purple • Loosen My Strings (аккорды и текст - chords & lyrics)


901

Print

Видео «Loosen My Strings (Deep Purple)»

Видео клипы к песне подбираются автоматически сайтом youtube. Возможны некоторые несоответствия клипов песне.

↑ Спрятать рекламу ↑






intro repeat 2x
w/delay
e|----------17--------------------------17---------------------|
b|-------15----------18-20-17-------15---------------18-20--17-|
g|----14----------17-------------14---------------17-----------|
d|-12----------15-------------12------------15-17--------------|
a|-------------------------------------------------------------|
E|-------------------------------------------------------------|

part2 distorted
e|----------5-------------------------5-------------|--|-------|
b|-------3-----------6--8--5-------3----------6-8-5-|--|-5---7-|
g|----2-----------5-------------2-----------5-------|--|-5---7-|
d|-0-----------3-------------0----------3-5---------|2X|-5---7-|
a|--------------------------------------------------|--|-3---5-|
E|--------------------------------------------------|--|-------|

Wake up in the morning Get into bed
ph ph
e|-----------------------------------------------|
b|-----------------------------------------------|
g|-7---5---------------------7--7-----5b7--------|
d|-7---5---------------------7--7--5------7------|
a|-5---3-----------7--3-5----5--5--3---------3-2-|
E|--------5--3~~---5--1-3----------5---------1-0-|


closing my eyes I rest my head
ph
e|--------------------------------------------------|
b|--------------------------------------------------|
g|-7--------------------------7---7-5---------------|
d|-7--5-----------------------7---7-5----5b7--------|
a|-5--3----------7----3-5-----5---5-3----------3--2-|
E|-------5--3~~--5----1-3--------------5-------1--0-|

repeat part2


There is no arrangement
No time no place
It?s gone in the wind
and left no trace

Who can say, maybe or whatever. It?s up to you
e|------------------------------------------------------------|
b|-------------1----------------------------------------------|
g|-----------2--------------------------5---------------------|
d|--3------3-----3----------------7----7----7-5-3-------------|
a|--3----3-------3----------------7---7-----------3-----------|
e|--1--1---------1-----3----------5--5--------------5-4-3-0-1-|

You know you can trust me I?ll make it up to you
e|------------------------------------------------------|
b|----------1-------------------------------------------|
g|---------2------------------5-------------------------|
d|---3----3---3---------7----7---7------7-5-3-----------|
a|---3---3----3---------7---7----7------------3-------3-|
e|---1--1-----1--3------5--5-----5--------------5-4-3---|


e|----------5------------------------------5--------------|
b|-------3------------6--8--5-----------3-----------6-8-5-|
g|----2------------5-----------------2------------5-------|
d|-0------------3-----------------0-----------3-5---------|
a|--------------------------------------------------------|
E|--------------------------------------------------------|

other verse the same processions except some more pitched
harmonics

You move with the action
You loosen my strings
Your fingers
can smooth out my jangles
and all those things

Grease on the handle
and the tangles
in my hair
They always seem
to go together
I don?t care

guitar part before solo
e|---------------------3----------------|
b|---3-----1-----1----3----10---11---13-|
g|--2-----0-----2----0----9----10---12--|
d|-0-----2-----3---------7----8----10---|
a|--------------------------------------|
E|--------------------------------------|

chords before solo
e|-------------------------|
b|-------------------------|
g|-------------------------|
d|---10----10-----8-8---10-|
a|---10----10-----8-8---10-|
E|---8-----8------6-6---8--|

solo
3:09
e|---------------------------------------------------------|
b|---------------------------------------------------------|
g|-11b12rb11-----------------------------------------------|
d|-----------12-14-12h14p12--------------------------------|
a|--------------------------15-14~~---15-14-12h14p12-10-12-|
E|---------------------------------------------------------|

e|-------------------------------------------------------------|
b|-------------------------------------------------------------|
g|-------------11-12-14b16rb14-11-12-14-16b17-14-12~-----------|
d|-----11-12-14-------------------------------------14~--------|
a|12-14------------------------------------------------15-12-14|
E|-------------------------------------------------------------|

3:28
e|------------------------14b15rb14b15rb14---------------------|
b|------------------12-15------------------15-15b17rb15-13-12~-|
g|---------11-12-14--------------------------------------------|
d|-11-12-14----------------------------------------------------|
a|-------------------------------------------------------------|
E|-------------------------------------------------------------|

3:37
e|----------------------------------------------14-15-17b19rb17|
b|13p12h13p12---------------------------12-14-15---------------|
g|-----------14p12h14~----------11-12-14-----------------------|
d|----------------------11-12-14-------------------------------|
a|-------------------1214--------------------------------------|
E|-------------------------------------------------------------|

tp tp tp
e|-14-15~--17-19b20rb19-17-15-15vv-15-17-19-15-17~-17-19-21b22-|
b|-------------------------------------------------------------|
g|-------------------------------------------------------------|
d|-------------------------------------------------------------|
a|-------------------------------------------------------------|
E|-------------------------------------------------------------|

3:50
ph[------------------------------------]
e|-----------------------------------------|
b|-----------------------------------------|
g|-----------------------------------------|
d|-----------------------------------------|
a|-----------------------------------------|
E|--0--1-3-1~~----3-5-6--5~~--6--8-10-12~~-|


Who can say, maybe or whatever. It?s up to you
e|------------------------------------------------------------|
b|-------------1----------------------------------------------|
g|-----------2--------------------------5---------------------|
d|--3------3-----3----------------7----7----7-5-3-------------|
a|--3----3-------3----------------7---7-----------3-----------|
e|--1--1---------1-----3----------5--5--------------5-4-3-0-1-|

You know you can trust me I?ll make it up to you
e|------------------------------------------------------|
b|----------1-------------------------------------------|
g|---------2------------------5-------------------------|
d|---3----3---3---------7----7---7------7-5-3-----------|
a|---3---3----3---------7---7----7------------3-------3-|
e|---1--1-----1--3------5--5-----5--------------5-4-3---|

Тональность:

Это должно быть в ТОП-листе! - Топ-лист композиций



Назад
Рекомендуем посмотреть другие песни исполнителя «Deep Purple»:

  • Комменты Fb ()
  • Комменты ВК



Добавить в Избранное Браузера
Сохранить здесь Очистить


x

0


+
-

+
-

-

Авторизация





Зарегистрироваться

M

Дата и время

  • 11:33:19
     

Социальные ссылки


Наши приложения

  • Muzbank App Play Market
  • Muzbank Amazon App