MUZBANK


МУЗЫКАЛЬНО-ИНФОРМАЦИОННЫЙ БАНК





DDeep Purple • Maybe Im A Leo (аккорды и текст - chords & lyrics)


651

Print

Видео «Maybe Im A Leo (Deep Purple)»

Видео клипы к песне подбираются автоматически сайтом youtube. Возможны некоторые несоответствия клипов песне.

↑ Спрятать рекламу ↑






E|-------------------------------------| 1 такт
B|-------------------------------------|
G|-------------------------------------|
D|------------0/3----------------4/5-3-|
A|5-5-3-0-3-5-----5--5-5-3-0-3-5-------|
E|-------------------------------------|

E|-----------------------------------| 2 такт
B|-----------------------------------|
G|-----------------------------------|
D|-----------------------------------|
A|------------3------------3-4-pause-|
E|5-5-3-0-3-5---5--5-5-3-0-----------|

NB – 3 и 4 такт начать со слабой доли!!!

E|-------------------------------------| 3 такт
B|-------------------------------------|
G|-------------------------------------|
D|-------------0/3----------------4/5-G|
A|-5-5-3-0-3-5-----5--5-5-3-0-3-5------|
E|-------------------------------------|

E|-----------------------------------| 4 такт
B|-----------------------------------|
G|-----------------------------------|
D|---------------------------5-------|
A|-------------3-------------3--5/6/-|
E|-5-5-3-0-3-5---5--5-5-3-0-----3/4/-|


         Peeping round the door I got a big surprise
E|--------------------------------------------------|
B|--------------------------------------------------|
G|--------------------------------------------------|
D|/7--7--7--7--7--7--7--7--7--7--7--7--7--7--7--7--7|
A|/7--7--7--7--7--7--7--7--7--7--7--7--7--7--7--7--7|
E|/5--5--5--5--5--5--5--5--5--5--5--5--5--5--5--5--A|

E|------------------------------------|
B| -----------------------------------|
G| -----------------------------------|
D|-----------------------------5------|
A|5/7-5-3-0-3-5-----5/7-5-3-0--3--5/6-|
E|--------------3-5---------------3/4-|

   Couldn’t see a thing but open skies
E| -----------------------------------|
B| -----------------------------------|
G|/7--7--7--7--7--7--7--7--7--7--7--7-|
D|/7--7--7--7--7--7--7--7--7--7--7--7-|
A|/5--5--5--5--5--5--5--5--5--5--5--5-|
E| -----------------------------------|

E|------------------------------------|
B|------------------------------------|
G|------------------------------------|
D|-----------------------------5------|
A|5/7-5-3-0-3-5-----5/7-5-3-0--3--5/6-|
E|--------------3-5---------------3/4-|

   They’ve taken her away where is  she  now?
E|--------------------------------------------------------|
B|--------------------------------------------------------|
G|/9--9--9--9--9--9--9--9---7----5---4----------7-7---7-7-|
D|/9--9--9--9--9--9--9--9---7----5---4----7-----7-7---7-7-|
A|/7--7--7--7--7--7--7--7---5----3---2----7-----5-5---5-5-|
E|----------------------------------------5---------------|

Конец первого куплета.

Далее как сначала… потом идет «неподбираемое» соло, затем
Второй куплет – 1-2-3-4 такты + то же самое со следующими
словами:

Wish that she was here wish she’d hold my hand
Maybe she could laugh maybe understand
Why was I so cruel where is she now?

Третий куплет аналогично.

Acting like a fool had to make her cry
Maybe I’m a Leo but I ain’t a lion
I’m hurting oh so bad, I want her now.

Окончание: 1+2 такт – далее много-много раз 3+4.

Тональность:

Это должно быть в ТОП-листе! - Топ-лист композиций



Назад
Рекомендуем посмотреть другие песни исполнителя «Deep Purple»:

  • Комменты Fb ()
  • Комменты ВК



Добавить в Избранное Браузера
Сохранить здесь Очистить


x

0


+
-

+
-

-

Авторизация





Зарегистрироваться

M

Дата и время

  • 23:41:42
     

Социальные ссылки


Наши приложения

  • Muzbank App Play Market
  • Muzbank Amazon App