MUZBANK


МУЗЫКАЛЬНО-ИНФОРМАЦИОННЫЙ БАНК





DDeep Purple • Smoke On The Water (аккорды и текст - chords & lyrics)


1244

Print

Видео «Smoke On The Water (Deep Purple)»

Видео клипы к песне подбираются автоматически сайтом youtube. Возможны некоторые несоответствия клипов песне.

↑ Спрятать рекламу ↑






Riff A
E|-------------------|----------------|------------------|-----|
B|--------------*----|--------------*-|-------------*----|---*-|
G|--------------X----|--------------X-|-------------X----|---X-:
D|-5---8---10------5-|-8---11--10-----|-5---8---10-----8-|-5---:
A|-5---8---10------5-|-8---11--10-----|-5---8---10-----8-|-5---|
E|-------------------|----------------|------------------|-3---|

E|---------------|--------------------|---|--------------------|
B|---------------|--------------------|---|--------------------|
G|---------------|--------------------|-%-|--------------------|
D|-5-------------|-------5----------5-|-%-|--------5---------3-|
A|-5----------10-|----5----------5----|---|-----5---------3----|
E|-3-------------|-3----------3-------|---|--3---------1-------|

E|-------------------|---|-------------------|-----------------|
B|-------------------|---|-------------------|-----------------|
G|-------------------|-%-|---------------(3)-|-----------------|
D|-------5---------5-|-%-|-------5--------5--|-------5-------3-|
A|----5---------5----|---|----5--------5-----|----5----3--3----|
E|-3---------3-------|---|-3--------3--------|-3-------1-------|

E|-------------|-------------|--------------|------------------|
B|-------------|-------------|--------------|------------------|
G|-------------|-------------|--------------|------------------|
D|-----5-----5-|-----5-----5-|--------------|-------5--3-------|
A|---5---5-5---|---5---5-5---|-5--5-5-5-5-5-|-5--5--------3----|
E|-3-----3-----|-3-----3-3---|-3--3-3-3-3-3-|-3--------------1-|

E|-------------|-------------|--------------|------------------|
B|-------------|-------------|--------------|------------------|
G|-------------|-------------|--------------|------------------|
D|-----5-------|-----5-----5-|-5----------5-|-------5--------3-|
A|-5-5---5-5-5-|---5-----5---|-5-5------5---|----5--------3----|
E|-3-----3---3-|-3-----3-----|-----3-3------|-3--------1-------|

E|---------------------|
B|---------------------|
G|---------------------|
D|-------3h5---------5-|
A|-5--5-----------5----|
E|-3-----------3-------|

Chorus

E|---------|----------|------|-----|-----------|---------------|
B|---------|----------|------|-----|-----------|---------------|
G|-------5-|----------|------|-----|---------5-|---------------|
D|----5----|--------6-|------|-----|-----5-----|---------6---X-|
A|-3-------|----6-----|----5-|-(5)-|-3---------|-----6---------|
E|---------|-4--------|-3----|-----|-----------|-4-------------|

Riff A

Riff A, 1st 3 bars + Rhy Fill 1

----------------------------------------------------------------

2nd Verse
Rhy. Fig 1

----------------------------------------------------------------
Chorus
Riff B

Riff A

Riff A, 1st 3 bars + Rhy Fill 1
----------------------------------------------------------------
Solo  (With 2nd guitar playing 16 bars similar to Rhy Fig 1)

E|----------------|---------------------------------------|
B|----------------|  (Played over last bar, Rhy Fill 1)---|
G|----------------|  (Played with neck pickup)------------|
D|---------12--15-|  (2nd guitar comes in after this bar)-|
A|----------------|---------------------------------------|
E|----------------|---------------------------------------|

E|-------------------------|--------------------------|
B|----------------13gfr(13)p11q-----------11t-X-X-----|
G|--12~~~~~~~-X------------|----12wwwwwwww----X-X--12-|
D|-------------------------|--------------------------|
A|-------------------------|--------------------------|
E|-------------------------|--------------------------|

E|-------------------------|--------------------------------|
B|----12-15-15f~~~~~-15-14-|--------------------------------|
G|-15----------------------|-12-14--12h14p1210--12-10--8-10-|
D|-------------------------|--------------------------------|
A|-------------------------|--------------------------------|
E|-------------------------|--------------------------------|

E|---------------------------------|
B|-------------------------------8-|
G|-10-10gf10gh10gf(10)~~~~~--X-----|
D|---------------------------X-----|
A|---------------------------------|
E|---------------------------------|

E|----------------~~~~~~~--8---------|
B|-11--11gf11--11gf--------11--8--11-|
G|-----------------------------------|
D|-----------------------------------|
A|-----------------------------------|
E|-----------------------------------|

E|------8----------------------------------|
B|----8---11-10-8--------------------------|
G|-10f-------------11-10p8----10-8-7p5-----|
D|-------------------------10----------8-7-|
A|-----------------------------------------|
E|-----------------------------------------|

E|-----------------|------------------------|---------------/--|
B|-----------------|------------------------|--------------/---|
G|-------5---8-7-5-|-3fr-(3)~~~~-5--3--2--3-|-2--3--2--0---(0)-|
D|-5-8-7---8-------|------------------------|------------------|
A|-----------------|------------------------|------------------|
E|-----------------|------------------------|------------------|

E|-----3h--3-3-------------------|-----------------------|
B|---3---6h----6-5p3-------------|------------------3--6-|
G|-5f----------------6p5-3---5-3-|-5f--5f--5f--5f--------|
D|-------------------------5-----|-----------------------|
A|-------------------------------|-----------------------|
E|-------------------------------|-----------------------|

E|-3--------3--6--8f---|-8h-8--6--8---------------|
B|----3--6-------------|-------------8~~~~~~~~--8-|
G|---------------------|--------------------------|
D|---------------------|--------------------------|
A|---------------------|--------------------------|
E|---------------------|--------------------------|

E|---------8-------8---8--10-|-11-13-----13f~~~~13-|
B|-11----8---11--8---11------|---------------------|
G|----10h--------------------|---------------------|
D|---------------------------|---------------------|
A|---------------------------|---------------------|
E|---------------------------|---------------------|

E|(13)f13-13f13-13fwwww-13-|13gf13-10---------------|
B|-------------------------|----------13-13f~~~~~~~-|
G|-------------------------|------------------------|
D|-------------------------|------------------------|
A|-------------------------|------------------------|
E|-------------------------|------------------------|

E|-----------------------|-----8--6--8--8-|
B|----6------------------|-/8-------------|
G|-5f----5ghr3q--5--3h---|----------------|
D|---------------------5-|----------------|
A|-----------------------|----------------|
E|-----------------------|----------------|

    Bridge pickup, guitar 2 plays Riff A
E|(8)f8--8--8h-f8--8--8-|-8--8--8--8----8q-----|
B|----------------------|--------------------6-|
G|----------------------|----------------------|
D|----------------------|----------------------|
A|----------------------|----------------------|
E|----------------------|----------------------|

E|------------------------|----------------|
B|(6)---(6)f---(6)~~~~~~~~|~(6)~~~~~~~~~~~-|
G|------------------------|----------------|
D|------------------------|----------------|
A|------------------------|----------------|
E|------------------------|----------------|

Riff A - first 3 bars
Rhy. Fill 1

---------------------------------------------------------------
Verse 3

Rhy Fig 1. - first 12 bars

Palm Mute-------------------------------------------------------
E|-----------------------------|-------------------------------|
B|-----------------------------|-------------------------------|
G|-----------------------------|-------------------------------|
D|--------5--------------5-----|---------5---------------5-----|
A|-----5-----x-------5-------5-|-----5-------5-------5-------5-|
E|-3-------------3-------------|-3---------------3-------------|

Palm Mute-------------------------------------------------------
E|-----------------------------|-------------------------------|
B|-----------------------------|-------------------------------|
G|-----------------------------|-------------------------------|
D|--------5--------------3-----|---------5---------------5-----|
A|-----5-----5-------3-------3-|-----5-------5-------5---------|
E|-3-------------1-------------|-3---------------3-----------3-|

----------------------------------------------------------------

Chorus (Variation:)

Let ring throughtout:

E|-------------------|-------------------|------------|
B|-------------------|-------------------|------------|
G|-----------5-------|-------------------|------------|
D|------5------------|-----------6-------|------------|
A|-3-----------------|------6------------|----------5-|
E|-------------------|-4-----------------|-3----3-----|

E|-----------------|-------------------|-------------|
B|-----------------|-------------------|-------------|
G|-----------------|-----------5-------|-------------|
D|-----------------|------5------------|-----------6-|
A|(5)--------------|-3-----------------|------6------|
E|-----------------|-------------------|-4-----------|

Riff A - four times

----------------------------------------------------------------
Outro - Organ Solo

E|-------------------|------------|----------------------|
B|-------------------|------------|----------------------|
G|-------3-----------|------%-----|-3--------------------|
D|-3--5--3--3--5-----|------%-----|-3--5--3--5------3----|
A|-3--5-----3--5-----|------------|----5--3--5------3--5-|
E|-------------------|------------|----------------------|

E|----------------------|----------------------|
B|----------------------|----------------------|
G|-3--------------------|-3--------------------|
D|-3--5--3--5------3--5-|-3--5--3--5------3--5-|
A|----5--3--5------3--5-|----5--3--5------3--5-|
E|----------------------|----------------------|

E|----------------------|------------------------|
B|----------------------|------------------------|
G|-3h-5-----------------|-3----------------------|
D|-3h-5--3--5-----3-----|-3--5--3--5-----5-----5-|
A|-------3--5-----3--5--|----5--3--5-----5-----5-|
E|----------------------|------------------------|

E|-------------------------|---------------------|
B|-------------------------|---------------------|
G|-------------------------|---------------------|
D|-----5-----5-----5--3--4-|-5----5----5----5--5-|
A|-----5-----5-----5--3--4-|-5----5----5----5--5-|
E|-------------------------|---------------------|

E|-------------------|----------------------|------------------|
B|-------------------|----------------------|------------------|
G|-------------------|-3--------------------|------------------|
D|-5-----5----5----5-|-3--5--3--5----5----5-|-5----5----5----5-|
A|-5-----5----5----5-|----5--3--5----5----5-|-5----5----5----5-|
E|-------------------|----------------------|------------------|

Тональность:

Это должно быть в ТОП-листе! - Топ-лист композиций



Назад
Рекомендуем посмотреть другие песни исполнителя «Deep Purple»:

  • Комменты Fb ()
  • Комменты ВК



Добавить в Избранное Браузера
Сохранить здесь Очистить


x

0


+
-

+
-

-

Авторизация





Зарегистрироваться

M

Дата и время

  • 23:41:07
     

Социальные ссылки


Наши приложения

  • Muzbank App Play Market
  • Muzbank Amazon App