MUZBANK


МУЗЫКАЛЬНО-ИНФОРМАЦИОННЫЙ БАНК





DDeep Purple • Space Truckin (аккорды и текст - chords & lyrics)


684

Print

Видео «Space Truckin (Deep Purple)»

Видео клипы к песне подбираются автоматически сайтом youtube. Возможны некоторые несоответствия клипов песне.

↑ Спрятать рекламу ↑






   G5 A5 D5 C5 A5 C5 D5 G5 A5
D|-------7--5-----5--7-------|
A|-5--7--5--3--7--3--5--5--7-|
E|-3--5--------5--------3--5-|

VERSE
D|-------2--4--2--4--2--4--2--4-|
A|-5--7--0--0--0--0--0--0--0--0-|
E|-3--5-------------------------|

D|-5--7--7--9-------------------------|
A|-3--3--5--5--7--9--7--9--7--9--7--9-|
E|-------------5--5--5--5--5--5--5--5-|

D|-------------5--7--7--9-------------|
A|-7--9--7--9--3--3--5--5--7--9--7--9-|
E|-5--5--5--5--------------5--5--5--5-|

D|-7--9--7--9--------------7--9--7--9-|
A|-5--5--5--5--7--9--7--9--5--5--5--5-|
E|-------------5--5--5--5-------------|
(VERSE 1)
Well, we had a lot of luck on Ve - nus,
we al - ways have a ball on Mars.--- With meet-ing all the
groov-y peo- ple we?ve rocked the Milk-y Way so far
We danced a-round with bo -----re --------al--------is,
we?re space truck-in? round the stars.-

(VERSE 2)
Re-mem-ber- when we did the moon-shot and
Po-ny Trek-ker led the way?--- We?d move to the Ca-nav -?ral
moon
---stomp and ev-?ry ?naut would dance and sway.--- Got
mu-sic in our so ------lar--------sys----tem, we?re space
truck-in? round the stars.--

CHORUS
E (chord) let ring Chorus (A)

Come on! Come on!
Come on! Come on!
Come on! Come on!
Let?s go space truckin?- Come on!

Come on! Come on!
Come on! Come on!
Come on! Come on!
? Re- Space truck-in?

E Chord to Key of A

E|------------------------------------|
B|------------------------------------|
G|-9----------------------------------|
D|-9-----2--1--0--------------2--1--0-|
A|-7--0-----------3--2--1--0----------|
E|-0----------------------------------|

D|-------------2--1--0--------------2--1--0-------------|
A|-3--2--1--0-----------3--2--1--0-----------3--2--1--0-|
E|------------------------------------------------------|

D|-2--1--0-------------------------------------------|
A|----------3--2--0-----2--1--0--------------2--1--0-|
E|-------------------0-----------3--2--1--0----------|

D|------------------------------------------------------------|
A|---2-1-0--------------2--1--0--------------2--1--0----------|
E|-0--------3--2--1--0-----------3--2--1--0-----------3--2--1-|

E|---------------------------------------------------|
B|-------------------------------------------------5-|
G|-------------------------------------------------5-|
D|-------------------------------------------------5-|
A|---------------------------------------------------|
E|-0--1--2--3--0--1--2--3--xxxxxxxxxxxxxxxxxxxxxxxx--|
(Bridge)
G5 A5 D5 C5
A5 C5 D5 G5 A5
G5 A5 D5 C5 A5 C5 D5 G5 A5
G5 A5 D5 C5 A5 D5 G5 A5
G5 A5 D5 C5 A5 C5 D5 E5(let ring)
(Bridge Verse)
The fire-ball that we rode was mov-
--ing but now we?ve got a new ma-chine
Yeah, yeah,-----yeah,-------yeah! The freaks said,
"Man those cats can real-ly swing."

They got mu---sic in their so------lar sys-------tem
--they?ve rocked a -round the Milk-y Way---ay-ay
They danced a-round with bo-re-al-is,
they?re space truck-in? ev-?ry day.

E|-------------------------------------------------------------|
B|---------------5-------------------------------------------5-|
G|---------------5-------------------------------------------5-|
D|---------------5-------------------------------------------5-|
A|-------------------------------------------------------------|
E|-xxxxxxxxxxxxxxxxxxx--xxxxxxxxxxxxxxxxxxxxxxxxxxxxxxxxxxxx---|

(Repeat Chorus)
Guitar Solo
/ - slide
> - bend
F - Full bend
) - Half-step bend
H-Hammer
P- Pull Off
A5
E|---------------------------------5------------------------|
B|------------------------8F>--8F>---8--5-------------------|
G|-----5F>-----------5F>-------------------8--7--5-----7--5-|
D|-/7-------7--5--7---------------------------------7-------|
A|----------------------------------------------------------|
E|----------------------------------------------------------|

E|--------------------5------5------5------5-------5-----------|
B|--------------------5-3/5-----3/5----3/5----3/5-----8--7---5-|
G|----------5F>----------------------------------------x---x---|
D|-7--5--7------7/---------------------------------------------|
A|------------------0------------------------------------------|
E|-------------------------------------------------------------|

E|----------------------------5--------------------------------|
B|-----------------------8F>-----8--5--------------------------|
G|-7----5>(-----5F>--------------------8--H-7-5-P--5-----5-----|
D|---x-------7-------7/-------------------------------7-----7/-|
A|-------------------------------------------------------------|
E|-------------------------------------------------------------|
Drum Solo

pick slide(steady gliss)
E|----------------------------------------------|
B|----------------------------------------------|
G|-4--5--6--7---------8--9--3--4--5--6--7--8--9-|
D|-2--3--4--5---------6--7----------------------|
A|----------------------------------------------|
E|----------------------------------------------|

E|--------------------------------------|
B|--------------------------------------|
G|-10--11--12--13--14--15--16--17--18-/-|
D|--------------------------------------|
A|--------------------------------------|
E|--------------------------------------|
Repeat chorus
Repeat and fade

Тональность:

Это должно быть в ТОП-листе! - Топ-лист композиций



Назад
Рекомендуем посмотреть другие песни исполнителя «Deep Purple»:

  • Комменты Fb ()
  • Комменты ВК



Добавить в Избранное Браузера
Сохранить здесь Очистить


x

0


+
-

+
-

-

Авторизация





Зарегистрироваться

M

Дата и время

  • 09:32:33
     

Социальные ссылки


Наши приложения

  • Muzbank App Play Market
  • Muzbank Amazon App