MUZBANK


МУЗЫКАЛЬНО-ИНФОРМАЦИОННЫЙ БАНК





ДДельфин • Вера (аккорды и текст - chords & lyrics)


462

Print

Видео «Вера (Дельфин)»

Видео клипы к песне подбираются автоматически сайтом youtube. Возможны некоторые несоответствия клипов песне.

↑ Спрятать рекламу ↑






 


(((BASS - E,A,D,G)))

slap styl. - ^,*!!!!!
/ - slide up
 - slide down
b - bend

Intro
------------------------------------|
|-----11-----10-----9-----8-----7---|
------------------------------------|
|-0h9----0h8----0h7---0h6---0h5---4-|

Main riff
F#                E
------------------------------------
------------------------------------
|-9-9-9--9-9999999-7-7-7--7-7777777- 
------------------------------------
B
------------------------------------|
------------------------------------|
------------------------------------|
-7-7-7--7-7777777--7-7-7--7-7777777-|

Vearse1!                  end!
|------------------------------------
|---------9--------6-6-6--|--------11
|------------------------------------
|-/9b--7---9----4--------|/9--0h9---
        ^ *      ^ * * *

----------------------------|
-----10-----9-----8-----7---|
----------------------------|
-0h8----0h7---0h6---0h5---4-|


Vearse2!                  end!
|-----------------------------------------|
|---------9--------6-6-6------------------|
|-----------------------------------------|
|-/9b--7---9----4--------|/9--8-7-6-5-4-3-|
        ^ *      ^ * * *
  
Bridge
F#               E
|------------------------------
|-8-8-8--11-9-8--9-9-9---9-6-6/
|-9-9-9--9--9-9--7-7-7--7--7-7/
|------------------------------
B
--------------------------------------|
/13-13-13--13-16-16--13--13--13-16-16-|
/14-14-14--14-14-14--14--14--14-14-14-|
--------------------------------------|

Bridge2 
Что ты от него хочешь....
--------------------------|
--------------------------|
--------------------------|
|-15~---15~---15~---15~---|


            (((Gutar - E,A,D,G,B,E)))


SOLO (Main riff 2,3,4time)
|-------------------------|
|-7-9-7-5-5-0-0-12--------|
|-------------------------|
|-------------------------|
|-------------------------|
|-------------------------|

SOLO2 (Main riff 3,4,time)
соло 2 и 3 в 2раза быстрее!
|-14-16-14-12-12----19----|
|----------------12-------|
|-------------------------|
|-------------------------|
|-------------------------|

Bridge(2) 
Что ты от него хочешь...
|------------------|
|------------------|
|-5--5--5-5-5-5--5-|
|------------------|
|-3--3--3-3-3-3--3-|
|------------------|
        
Solo3 (Main riff 4,outro)   end
|-14-16-14-12-12----14-16-| |-14-|
|----------------12-------| |----|
|-------------------------| |----|
|-------------------------| |----| 
|-------------------------| |----| 
|-------------------------| |----|

Chords:((distor.)Main riff 3,4 time) 
F#   E   B
|----|---|---|
|----|---|---|
|-11-|-9-|---|
|-11-|-9-|-9-|
|-9--|-7-|-9-|
|----|---|-7-|

             (((Lyrics)))

Vearse 1

Все! не во что больше верить
Все! некому доверять
Чем каждый третий жизнь свою будет мерить
Если каждый второй готов убивать
Если слези весят меньше чем платина
Если кровь каждого кипит препоратоми
Если вместо Бога какая-то гадина
А любовь к нему мереют только каратами


Vearse 2

Ты просишь его дать тебе силу
Ты говоришь неведал что делал
А сам его уже давно втоптал в глину
А сам его давно уже предал
Терновый венок нервет тебе голову
Руки твои гвоздями пробиты не будут
И в рот тебе не льют расколенное олово
Когда ты здохнишь тебя все забудут
Нет ты нетот кто его распял
И даже не тот кто держал его руки
Ты просто тот кто нечего не сказал
Когда он затебя принимал эти муки
Не будим спорить кто праведен а кто грешен
Никто ненайдет себе спокойную старость 
Просто каждый поступок должен быть взвешан
Хотя бы чуть чуть хотя бы самую малость

Bridge

Что ты от него хочешь
Он и так о тебе дохрена печется
Если сльуною весь крест намочешь
Время твое назад невернется
Тебе надо не верить а веровать
Что бы душа неметалась пловником фарели 
Никто не сможет нечего посоветовать
когда встанешь лицом к последней своей двери.
 

Тональность:

Это должно быть в ТОП-листе! - Топ-лист композиций



Назад
Рекомендуем посмотреть другие песни исполнителя «Дельфин»:

  • Комменты Fb ()
  • Комменты ВК



Добавить в Избранное Браузера
Сохранить здесь Очистить


x

0


+
-

+
-

-

Авторизация





Зарегистрироваться

M

Дата и время

  • 01:52:42
     

Социальные ссылки


Наши приложения

  • Muzbank App Play Market
  • Muzbank Amazon App