MUZBANK


МУЗЫКАЛЬНО-ИНФОРМАЦИОННЫЙ БАНК





DDepeche Mode • Freelove (аккорды и текст - chords & lyrics)


497

Print

Видео «Freelove (Depeche Mode)»

Видео клипы к песне подбираются автоматически сайтом youtube. Возможны некоторые несоответствия клипов песне.

↑ Спрятать рекламу ↑






E|-1-----1-----1---1-----3----1---|
B|---3-----3-----3---2------2---2-|
G|-----2-----2---------3----------|
D|--------------------------------|
A|--------------------------------|
E|--------------------------------|

E|-1---1-3--4-3-------3------1---1-3---4-3-----|-------|
B|---2-----2----4---3---4p3----2-----2-----4---|-3---4-|
G|----------------5--------------------------5-|---5---|
D|---------------------------------------------|-------|
A|---------------------------------------------|-------|
E|---------------------------------------------|-------|

verse C# D# Fm E/Fm D#/fm
E|---|-1--------------6----------|----------------------------|
B|---|--------4-------------9----|----6------8--(--9--9---9-)-|
G|-6-|------1-------------6------|---6------8---(-10--10--10)-|
D|---|----3-----3-------------8--|--6------8----(10---10--10)-|
A|---|---------------------------|-4------6-----8-----7---6---|
E|---|---------------------------|----------------------------|

interlude (play a couple of times)
E|-------------|
B|----6------6-|
G|---7------6--|
D|--7------6---|
A|-5------4----|
E|-------------|

the chorus is played differently after the interlude:
E|-1-----1----1-----3-1---1-----1----1-----3-1-|
B|---3----------2-----------3-----3----2-------|
G|-----2----------3-----------2----------3-----|
D|---------------------------------------------|
A|---------------------------------------------|
E|---------------------------------------------|

E|-1-----3-1-3--------3-4-3----1-----3-1-3-3----------|
B|---2----------4---4-------4----2-----------4---3--4-|
G|-----3----------5----------------3-----------5------|
D|----------------------------------------------------|
A|----------------------------------------------------|
E|----------------------------------------------------|

Тональность:

Это должно быть в ТОП-листе! - Топ-лист композиций



Назад
Рекомендуем посмотреть другие песни исполнителя «Depeche Mode»:

  • Комменты Fb ()
  • Комменты ВК



Добавить в Избранное Браузера
Сохранить здесь Очистить


x

0


+
-

+
-

-

Авторизация





Зарегистрироваться

M

Дата и время

  • 03:02:39
     

Социальные ссылки


Наши приложения

  • Muzbank App Play Market
  • Muzbank Amazon App