MUZBANK


МУЗЫКАЛЬНО-ИНФОРМАЦИОННЫЙ БАНК





DDepeche Mode • In Your Room (аккорды и текст - chords & lyrics)


756

Print

Видео «In Your Room (Depeche Mode)»

Видео клипы к песне подбираются автоматически сайтом youtube. Возможны некоторые несоответствия клипов песне.

↑ Спрятать рекламу ↑






fig (1) fig (2) fig (3)

|---4---2-0---2---0----|---0---2-4---0---2-4--|---1---3-1--|
|-2---2-------------4--|-2---2-----2---2------|-1---1------|
|-----------4---4------|----------------------|------------|
|----------------------|----------------------|------------|
|----------------------|----------------------|------------|
|----------------------|----------------------|------------|



Use Distorsion
--------------

fig (4) fig (5) fig (6)

B B
|-9------|-9-*-9-*-9-*-9-9-*--|-9---9-----9-9---9----------|
|----3---|-9-*-9-*-9-*-9-9-*--|---9---9---9---9---9--------|
|--------|-8-*-8-*-8-*-8-8-*--|---------8-8----------------|
|--------|--------------------|----------------------------|
|--------|--------------------|----------------------------|
|--------|--------------------|----------------------------|


B: Bend



Ok, now the plan:

- During the intro Martin plays: 4* fig(1)
- During the first and second verse he plays:
4*fig(1), 1*fig(2), 1*fig(1), 2*fig(3), 2*fig(2)
-During the break Martin plays: 4*fig(4)
-During the the Burden he plays fig(5) and fig(6)
-During the verse 3 he plays the same plan as in the
1 and 2 verse but just the end of this plan.


Lyrics
******


IN YOUR ROOM(Zephyr mix)
------------

Verse 1 :
-------

In your room
Where time stands still
Or moves at your will
Will you let the morning come soon
Or will you leave me lying here
In your favourite darkness
Your favourite half-light
Your favourite consciousness
Your favourite slave

Break
-----

Verse 2 :
-------

In your room
Where souls disappear
Only you exist here
Will you lead me to your armchair
Or leave me lying here
Your favourite innocence
Your favourite prize
Your favourite smile
Your favourite slave

Burden :
------

I'm hanging on your words
living on your breath
feeling with your skin
Will I always be here


Verse 3 :
-------

In your room
Your burning eyes
Cause flames to arise
Will you let the fire die down soon
Or will I always be here
Your favourite passion
Your favourite game
Your favourite mirror
Your favourite slave


Burden :
------

I'm hanging on your words
living on your breath
feeling with your skin
Will I always be here

Тональность:

Это должно быть в ТОП-листе! - Топ-лист композиций



Назад
Рекомендуем посмотреть другие песни исполнителя «Depeche Mode»:

  • Комменты Fb ()
  • Комменты ВК



Добавить в Избранное Браузера
Сохранить здесь Очистить


x

0


+
-

+
-

-

Авторизация





Зарегистрироваться

M

Дата и время

  • 23:45:09
     

Социальные ссылки


Наши приложения

  • Muzbank App Play Market
  • Muzbank Amazon App