MUZBANK


МУЗЫКАЛЬНО-ИНФОРМАЦИОННЫЙ БАНК





DDepeche Mode • Policy Of Truth (аккорды и текст - chords & lyrics)


768

Print

Видео «Policy Of Truth (Depeche Mode)»

Видео клипы к песне подбираются автоматически сайтом youtube. Возможны некоторые несоответствия клипов песне.

↑ Спрятать рекламу ↑





Cm                   F  Eb
You had something to hide
Cm                     F  Eb
Should have hidden it, shouldn't you
Cm                   F  Eb
Now you're not satisfied
Cm                     F  Eb
With what you're being put through 
 G#              
 It's just time to pay the price
 Fm
 For not listening to advice
 Bb
 And deciding in your youth
 G                     Cm
 On the policy of truth

Things could be so different now
It used to be so civilised
You will always wonder how
It could have been if you'd only lied
 It's too late to change events
 It's time to face the consequence
 For delivering the proof
 In the policy of truth

intro: Cm(III)   G#(III)   Cm(VII) \ Bbm(VI)

G#           F
Never again is what you swore
Cm
The time before
G#           F
Never again is what you swore
Cm
The time before


Now you're standing there tongue tied
You'd better learn your lesson well
Hide what you have to hide
And tell what you have to tell
 You'll see your problems multiplied
 If you continually decide
 To faithfully pursue
 The policy of truth


Never again is what you swore
The time before
Never again is what you swore
The time before




E||--------------------------|--------------------------|
B||--------------4~----------|--1--1--1--1--------------|
G||--------------------------|--------------------------|
D||--1-----------1-----------|--3--3--3--1--------0-----|
A||-----3-----3---------3----|-----------------3-----3--|
E||--------------------------|--------------------------|

  
--------------------------|---------------------------|
--------------4~----------|--1--1--1--1-----4~--------|
--------------------------|---------------------------|
--1-----------1-----------|--3--3--3--1-----1p--0-----|
-----3-----3---------3----|------------------------3--|
--------------------------|---------------------------|




                                         \1 
--------------------------|-------------------------|
-----------------------1--|-----1--1-----1-----L----|
--------------------0--1--|-----1--0--0--0-----L----|
--------------------1-----|-----------1-------------|
-----------------3--------|-------------------------|
--------------------------|-------------------------|

Тональность:

Это должно быть в ТОП-листе! - Топ-лист композиций



Назад
Рекомендуем посмотреть другие песни исполнителя «Depeche Mode»:

  • Комменты Fb ()
  • Комменты ВК



Добавить в Избранное Браузера
Сохранить здесь Очистить


x

0


+
-

+
-

-

Авторизация





Зарегистрироваться

M

Дата и время

  • 08:05:25
     

Социальные ссылки


Наши приложения

  • Muzbank App Play Market
  • Muzbank Amazon App