MUZBANK


МУЗЫКАЛЬНО-ИНФОРМАЦИОННЫЙ БАНК





DDepeche Mode • See You (аккорды и текст - chords & lyrics)


444

Print

Видео «See You (Depeche Mode)»

Видео клипы к песне подбираются автоматически сайтом youtube. Возможны некоторые несоответствия клипов песне.

↑ Спрятать рекламу ↑





Intro

G|----------14-------------|-------------------------|
D|-------------------------|----14-------------10----|
A|-12-12-12----12-12-12-12-|-12----12-------10----12-|
E|-------------------------|----------12-13----------|

Verse

G|----------14-------------|-------------------------|
D|-------------------------|----14-------------10----|
A|-12-12-12----12-12-12-12-|-12----12-------10----12-|
E|-------------------------|----------12-13----------|

G|-------------------------|-------------------------|
D|-------------------------|-------------------------|
A|-8--8--8--8--10-10-10-10-|----------10-7--7-----7--|
E|-------------------------|-8--8--8-----------10----|


Chorus
G|-------------------------|-------------------------|
D|-------------------------|-------------------7--7--|
A|--8--8--8--8--8--8--8--8-|-7--7--7--7--7--7--------|
E|-------------------------|-------------------------|

G|-------------------------|-------------------------|
D|-------------------------|-------------------------|
A|--8--8--8--8--8--8--8--8-|-------------------------|
E|-------------------------|-10----10----10----10----|

G|-------------------------|-------------------------|
D|-------------------------|-------------------------|
A|-10-----10----10----10---|-------------7--7--7--7--|
E|-------------------------|-8--8--8--8--------------|

G|-------------------------|-------------------------|
D|--7--7--7--7--10-7-------|-------------------------|
A|--------------------10-8-|-------------10-10-10-10-|
E|-------------------------|-10-10-10-10-------------|

G|-------------------------|-------------------------|
D|-------------------------|-------------------------|
A|--------------10--10--10-|-12-12-12-12-12-12-12-12-|
E|--8--8--8--8-------------|-------------------------|


Bridge
G|-------------------------|----------10-9-----------|
D|-------------------------|----------------12--10---|
A|-----------8-------------|-12-12-12----------------|
E|--8--8--8-----8--8-------|-------------------------|

G|--------------12-10-9----|-------------------------|
D|--12-12-12-12---------12-|-10-10-10-10-10-10-10-10-|
A|-------------------------|-------------------------|
E|-------------------------|-------------------------|

G|-10----------------------|-12----------------------|
D|-------------------------|-------------------------|
A|-8-----------------------|-10----------------------|
E|-------------------------|-------------------------|

G|-9-----------------------|-14----------------------|
D|-------------------------|-------------------------|
A|-7-----------------------|-12----------------------|
E|-------------------------|-------------------------|

G|-10----------------------|-12----------------------|
D|-------------------------|-------------------------|
A|-8-----------------------|-10----------------------|
E|-------------------------|-------------------------|

G|-14----14----14----14----|-14--------14---------14-|
D|-------------------------|-------------------------|
A|-12----12----12----12----|-12--------12---------12-|
E|-------------------------|-------------------------|

G|-------------------------|-------------------------|
D|-------------------------|-------------------------|
A|-------------------------|-10-10-10-10-10-10-10-10-|
E|-10-10-10-10-10-10-10-10-|-------------------------|

End

G|-------------------------|-------------------------|
D|-------------------------|-------------------------|
A|-12-12-12-12-12-12-12-12-|-12-12-12-12-12-12-12-12-|
E|-------------------------|-------------------------|


For 5-string bass

Intro

G|----------2--------------|-------------------------|
D|-------------------------|----2--------------3-----|
A|-0--0--0-----0--0--0--0--|-0-----0--------3-----0--|
E|-------------------------|----------0--1-----------|
C|-------------------------|-------------------------|

Verse

G|----------2--------------|-------------------------|
D|-------------------------|----2--------------3-----|
A|-0--0--0-----0--0--0--0--|-0-----0--------3-----0--|
E|-------------------------|----------0--1-----------|
C|-------------------------|-------------------------|

G|-------------------------|-------------------------|
D|-------------------------|-------------------------|
A|-------------------------|-------------------------|
E|-1--1--1--1--3--3--3--3--|----------3--0--0-----0--|
C|-------------------------|-0--0--0-----------2-----|

Chorus
G|-------------------------|-------------------------|
D|-------------------------|-------------------------|
A|-------------------------|--------------------0--0-|
E|--1--1--1--1--1--1--1--1-|-0--0--0--0--0--0--------|
C|-------------------------|-------------------------|

G|-------------------------|-------------------------|
D|-------------------------|-------------------------|
A|-------------------------|-------------------------|
E|--1--1--1--1--1--1--1--1-|-------------------------|
C|-------------------------|-2-----2-----2-----2-----|

G|-------------------------|-------------------------|
D|-------------------------|-------------------------|
A|-------------------------|-------------------------|
E|-3------3-----3-----3----|-------------0--0--0--0--|
C|-------------------------|-0--0--0--0--------------|

G|-------------------------|-------------------------|
D|-------------------------|-------------------------|
A|--0--0--0--0--3--0-------|-------------------------|
E|--------------------3--1-|-------------3--3--3--3--|
C|-------------------------|-2--2--2--2--------------|

G|-------------------------|-------------------------|
D|-------------------------|-------------------------|
A|-------------------------|-0--0--0--0--0--0--0--0--|
E|--------------3---3---3--|-------------------------|
C|--0--0--0--0-------------|-------------------------|

Bridge
G|-------------------------|-------------------------|
D|-------------------------|----------3--2--0--------|
A|-------------------------|-0--0--0------------3----|
E|-----------1-------------|-------------------------|
C|--0--0--0-----0--0-------|-------------------------|

G|-------------0-----------|-------------------------|
D|-0--0--0--0-----3--2--0--|-------------------------|
A|-------------------------|-3--3--3--3--3--3--3--3--|
E|-------------------------|-------------------------|
C|-------------------------|-------------------------|

G|-------------------------|-0-----------------------|
D|-3-----------------------|-------------------------|
A|-------------------------|-------------------------|
E|-1-----------------------|-3-----------------------|
C|-------------------------|-------------------------|

G|-------------------------|-2-----------------------|
D|-2-----------------------|-------------------------|
A|-------------------------|-0-----------------------|
E|-0-----------------------|-------------------------|
C|-------------------------|-------------------------|

G|-------------------------|-0-----------------------|
D|-3-----------------------|-------------------------|
A|-------------------------|-------------------------|
E|-1-----------------------|-3-----------------------|
C|-------------------------|-------------------------|

G|-2-----2-----2-----2-----|-2---------2----------2--|
D|-------------------------|-------------------------|
A|-0-----0-----0-----0-----|-0---------0----------0--|
E|-------------------------|-------------------------|
C|-------------------------|-------------------------|

G|-------------------------|-------------------------|
D|-------------------------|-------------------------|
A|-------------------------|-------------------------|
E|-------------------------|-2--2--2--2--2--2--2--2--|
C|-2--2--2--2--2--2--2--2--|-------------------------|

End

G|-------------------------|-------------------------|
D|-------------------------|-------------------------|
A|-0--0--0--0--0--0--0--0--|-0--0--0--0--0--0--0--0--|
E|-------------------------|-------------------------|
C|-------------------------|-------------------------|

Тональность:

Это должно быть в ТОП-листе! - Топ-лист композиций



Назад
Рекомендуем посмотреть другие песни исполнителя «Depeche Mode»:

  • Комменты Fb ()
  • Комменты ВК



Добавить в Избранное Браузера
Сохранить здесь Очистить


x

0


+
-

+
-

-

Авторизация





Зарегистрироваться

M

Дата и время

  • 00:45:51
     

Социальные ссылки


Наши приложения

  • Muzbank App Play Market
  • Muzbank Amazon App