MUZBANK


МУЗЫКАЛЬНО-ИНФОРМАЦИОННЫЙ БАНК





DDepeche Mode • Stories Of Old (аккорды и текст - chords & lyrics)


802

Print

Видео «Stories Of Old (Depeche Mode)»

Видео клипы к песне подбираются автоматически сайтом youtube. Возможны некоторые несоответствия клипов песне.

↑ Спрятать рекламу ↑






Intro

G|--------------------------------------------------------------------|
D|--------------------------------------------------------------------|
A|-------------------2----------------------2----0--------------------|
E|-2-----4-----0-----------2-----4-----0------------------------------|


Verse

G|--------------------------------------------------------------------|
D|.---------4-4-4-4---6-6-6-6----------------------------------------.|
A|.4-4-4-4-----------------------------4-7---------------------------.|
E|-------------------------------4---4--------------------------------|

G|--------------------------------------------------------------------|
D|-------------------4---------------------------6----4---------------|
A|---4-7-4-4-4-4---4---7--4---------6-6-6-6----6---6------------------|
E|-4------------------------------------------------------------------|


Chorus

G|--------------------------------------------------------------------|
D|-------------------4-4----4--2--------------------------------------|
A|-4-4----4-----------------------------------------------------------|
E|----------5-5----2--------------------------------------------------|

G|--------------------------------------------------------------------|
D|.-------------2------2---------------------------------------------.|
A|.2--4-4----4------------0-0----0--2-2------------------------------.|
E|--------------------------------------------------------------------|

Variation of Second Chorus

G|--------------------------------------------------------------------|
D|--------------2------2----------------------------------------------|
A|-2--4-4----4------------0-2----4------------------------------------|
E|--------------------------------------------------------------------|

Interlude

G|--------------------------------------------------------------------|
D|.4-4---4-4-4----4-6-6---6-6-6-----6--------------------------------.|
A|.-----------------------------------7-7---7-7-7---7----------------.|
E|----------------------------------------------------7-7---7-7-7---7-|

Then

G|--------------------------------------------------------------------|
D|--------------------------------------------------------------------|
A|--------------------------------------------------------------------|
E|-5-5----5-5-5---5-5-5---5-5-5---------------------------------------|

Тональность:

Это должно быть в ТОП-листе! - Топ-лист композиций



Назад
Рекомендуем посмотреть другие песни исполнителя «Depeche Mode»:

  • Комменты Fb ()
  • Комменты ВК



Добавить в Избранное Браузера
Сохранить здесь Очистить


x

0


+
-

+
-

-

Авторизация





Зарегистрироваться

M

Дата и время

  • 00:05:28
     

Социальные ссылки


Наши приложения

  • Muzbank App Play Market
  • Muzbank Amazon App