MUZBANK


МУЗЫКАЛЬНО-ИНФОРМАЦИОННЫЙ БАНК





DDepeche Mode • World In My Eyes (аккорды и текст - chords & lyrics)


578

Print

Видео «World In My Eyes (Depeche Mode)»

Видео клипы к песне подбираются автоматически сайтом youtube. Возможны некоторые несоответствия клипов песне.

↑ Спрятать рекламу ↑






Intro

G|--------------------------|-------------------------|
D|--4-----------------------|-------------------------|
A|----6--4--6------4--6-----|--4--7---4--6------------|
E|--------------------------|-------------------------|

Verse

G|--------------------------|------------------------|
D|.--4----------------------|-----------------------.|
A|.4---6--4--6------4--6----|--4--7---4--6----------.|
E|--------------------------|------------------------|
Let me take you on...

G|-------------------------|-------------------------|
D|-6-9--6----6---------6---|------6------6-----------|
A|--------9---------9------|---9------9--------------|
E|-------------------------|-------------------------|
And let my body do the...


Chorus

G|-------------------------|-------------------------|
D|-------------------------|-------------------------|
A|-----3-------3---2-------|-------------------------|
E|-4-----------------------|---4--------6------------|
That's all there is...

G|-------------------------|-------------------------|
D|-------------------------|-------------------------|
A|-6-----------------------|-------------------------|
E|-------------4-----------|---6-6--6--6--6----------|

Variation

G|-------------------------|-------------------------|
D|-------------------------|-------------------------|
A|-6-----------------------|---6---------------------|
E|-------------4-----------|-------------------------|

Тональность:

Это должно быть в ТОП-листе! - Топ-лист композиций



Назад
Рекомендуем посмотреть другие песни исполнителя «Depeche Mode»:

  • Комменты Fb ()
  • Комменты ВК



Добавить в Избранное Браузера
Сохранить здесь Очистить


x

0


+
-

+
-

-

Авторизация





Зарегистрироваться

M

Дата и время

  • 16:21:32
     

Социальные ссылки


Наши приложения

  • Muzbank App Play Market
  • Muzbank Amazon App