MUZBANK


МУЗЫКАЛЬНО-ИНФОРМАЦИОННЫЙ БАНК





DDire Straits • New Orleans (аккорды и текст - chords & lyrics)


471

Print

Видео «New Orleans (Dire Straits)»

Видео клипы к песне подбираются автоматически сайтом youtube. Возможны некоторые несоответствия клипов песне.

↑ Спрятать рекламу ↑





Key: G maj.

Intro solo:

---------------|---------------------------|------|-------|----------------|
---------------|---------------------------|------|-------|----------------|
---------------|--------11-12-14>12--------|-14>9-|-9>7>5-|-7-4>5-7-4>5----|
--12--14-12-14-|-12-14--------------12>14--|------|-------|----------------|
---------------|---------------------------|------|-------|----------------|
---------------|---------------------------|------|-------|----------------|


------------|---------------|-------|------------------|-------------------
------------|---------------|-------|------------15>10-|-10-15-12----------
-------9-7--|-----9-12>11-9-|-12>9--|-----12-14--------|-------------------
--7-10------|-12------------|-------|-12---------------|-------------------
------------|---------------|-------|------------------|-------------------
------------|---------------|-------|------------------|-------------------


-----------|-----------|--------12--
-12-13-10--|-12-13-15--|-13-15------
-----------|-----------|------------
-----------|-----------|------------
-----------|-----------|------------
-----------|-----------|------------

"Middle" solo. Begins at 4` 02".

---------------|--------------------|--------------------------------------
10-12-13-12-10-|-12-12-10-----------|-13-------7---7---7---8------------8--
---------------|-----------12

Тональность:

Это должно быть в ТОП-листе! - Топ-лист композиций



Назад
Рекомендуем посмотреть другие песни исполнителя «Dire Straits»:

  • Комменты Fb ()
  • Комменты ВК



Добавить в Избранное Браузера
Сохранить здесь Очистить


x

0


+
-

+
-

-

Авторизация





Зарегистрироваться

M

Дата и время

  • 09:18:12
     

Социальные ссылки


Наши приложения

  • Muzbank App Play Market
  • Muzbank Amazon App