MUZBANK


МУЗЫКАЛЬНО-ИНФОРМАЦИОННЫЙ БАНК





DDire Straits • The Waterline (аккорды и текст - chords & lyrics)


423

Print

Видео «The Waterline (Dire Straits)»

Видео клипы к песне подбираются автоматически сайтом youtube. Возможны некоторые несоответствия клипов песне.

↑ Спрятать рекламу ↑





E|---------------------------------------7-10-7^10^7---7---------------|
B|------------------------------------/7-------------7---7/12----10^12-|
G|-----7-9-9(11)9(11)-(11)9-7-9-9-7------------------------------------|
D|--/9-----------------------------------------------------------------|
A|---------------------------------------------------------------------|
E|---------------------------------------------------------------------|

E|--------------------7-10---------------------------------------------|
B|----------------7^10-------7-10---7----------------------------------|
G|-7^9(11)9^7---------------------9---7-9---7-----------------7-7----7-|
D|----------------------------------------9---7-9---7-------9------9---|
A|------------------------------------------------9---7-9--------------|
E|---------------------------------------------------------------------|

E|-----------------------------------------------------------------------|
B|-------------------------------------------3--3-3-3--------------------|
G|-9(11)-7-9-9--7^9^7-4-2-4--4^2-----4^2-------------4-4-2-2-------------|
D|-------------------------------4^0-----4^0----------------4-2-0-2^0----|
A|-------------------------------------------------------------------2-2-|
E|-----------------------------------------------------------------------|

E|-----------|---------7---------------------|-7------------------------|
B|-----------|-------7---7-10^7-10(12)10(12)-|-7------------------------|
G|-7-9-9-7-7-|-9(11)-------------------------|----9-9(10)9(10)9-7-------|
D|-7-9-9-7-7-|-------------------------------|----9-9(10)9(10)9---9-7-9-|
A|-----------|-------------------------------|--------------------------|
E|-----------|-------------------------------|--------------------------|

E|---------------|---------------------------------------------|
B|(9)7-7-7-5-53-3|--------------------------------------7(8)7-8|
G|(9)7-7-7-6-64-4|---7-7----7-9(11)9^7^9-7^9^7-------x--7(8)7-7|
D|---------------|7-9---7^9--------------------9^7^9---x-------|
A|---------------|---------------------------------------------|
E|---------------|---------------------------------------------|

E|-------------------7---------------------------------|-----------------|
B|-8/12-10---------7---10^7----------------------------|--7-9-9----------|
G|-7/11--9---9(11)----------9^7-9^7----0-------7-----7-|-7-9-9(11)9(11)9-|
D|-----------------------------------9-----------9-----|-----------------|
A|---------------------------------------7^8^9---------|-----------------|
E|-----------------------------------------------------|-----------------|

E|------------|----10----9----7---9---7---|------------------------------|
B|------------|-/7----/7---/7-----------7-|------------------------------|
G|---7--------|-----------------9---7---7-|-----7^9^7-----7-9(11)9^7^9-9-|
D|------9-7-9-|---------------------------|-7-9-------7^9----------------|
A|------------|---------------------------|------------------------------|
E|------------|---------------------------|------------------------------|

E|-----------------------------------------------------------------------|
B|------------------------7(8)7--8--8/12-10----9-10-12-12(14)-(14)12-9-8-|
G|-7-----7-9^7---7--------7(8)7--7--7/11-9----9--------------------------|
D|-----9-------9---9-7-9---------------------9---------------------------|
A|-----------------------------------------------------------------------|
E|-----------------------------------------------------------------------|

E|------------------10--------------------------------15------------------|
B|----10-8---10-8------8-10---8-------12-13-15-15(17)----(17)15-12-15(17)-|
G|--9------9------9---------9-------12------------------------------------|
D|-------------------------------/12--------------------------------------|
A|------------------------------------------------------------------------|
E|------------------------------------------------------------------------|

E|-13----------------------------------------------------5-7-----9/12-|
B|----(17)15-13-15-13------------------------------3/5/7--------------|
G|-------------------12/14---------------------0-2-----------7/9------|
D|-------------------------(15)14----------0-4------------------------|
A|--------------------------------13-12-------------------------------|
E|--------------------------------------------------------------------|

E|-9^12^9-----------------------------------------------------------------|
B|--------10/12-------------------------11----12^11--------------14-------|
G|--------------11/14---------0------11-------------11-13--13(15)--(15)13-|
D|-----------------------14------/11-------11-----------------------------|
A|--------------------16----0---------------------------------------------|
E|------------------------------------------------------------------------|

E|---------------------------------------12---------------|
B|------------12-15-12-----------------x----15-141210/127-|
G|-11------12----------12------------x--------------------|
D|------12----------------12-------x----------------------|
A|--------------------------------------------------------|
E|--------------------------------------------------------|

E|----------------------------|--------7------------------------------|
B|-7-9-10----10---------------|------7---10^7---7---------------------|
G|-7-9-9(11)-9(11)--11^9------|-9(11)---------9---9^7---0-------7---7-|
D|-7-9-------------------12-9-|-----------------------9-----------9---|
A|----------------------------|---------------------------7^8^9-------|
E|----------------------------|---------------------------------------|

E|-----------------------------------------------------------------------|
B|------------------------------------------------------7(8)7-8--8/12-10-|
G|-----7-9-7------7-9(11)9^7^9-9-7-7---7-9^7---7--------7(8)7-7--7/11--9-|
D|-7-9--------7^9--------------------9-------9---9-7-9-------------------|
A|-----------------------------------------------------------------------|
E|-----------------------------------------------------------------------|

E|---------7-10^7---7----------------------------------------9-|
B|-------7--------7---10^7-----------------7(8)7-8--8/12-10--7-|
G|-9(11)-------------------9^7-9^7---7-----7(8)7-7--7/11--9--7-|
D|---------------------------------9---9---------------------9-|
A|-----------------------------------------------------------9-|
E|-----------------------------------------------------------7-|

Тональность:

Это должно быть в ТОП-листе! - Топ-лист композиций



Назад
Рекомендуем посмотреть другие песни исполнителя «Dire Straits»:

  • Комменты Fb ()
  • Комменты ВК



Добавить в Избранное Браузера
Сохранить здесь Очистить


x

0


+
-

+
-

-

Авторизация





Зарегистрироваться

M

Дата и время

  • 11:03:05
     

Социальные ссылки


Наши приложения

  • Muzbank App Play Market
  • Muzbank Amazon App