MUZBANK



A MOST COMPLETE BANK OF MUSIC INFORMATION

МУЗЫКАЛЬНО-ИНФОРМАЦИОННЫЙ БАНК







    DDream Theater • Deep In Heaven (аккорды и текст - chords & lyrics)


    308

    Print

    Видео «Deep In Heaven (Dream Theater)»

    Видео клипы к песне подбираются автоматически сайтом youtube. Возможны некоторые несоответствия клипов песне.

    ↑ Спрятать рекламу ↑





     
    
    
    Dream Theater - Deep In Heaven
    (Trial Of Tears Part II)
    
    E||--8----------------|------------------|------------------|---------------
    ---|------------------|
    B||--8----------------|------------------|------------------|---------------
    ---|------------------|
    G||--6----------------|------------------|------------------|---------------
    ---|------11/10-------|
    D||--6----------------|------------------|------------------|---------------
    ---|------------------|
    A||--8----------------|------------------|------------------|---------------
    ---|------------------|
    E||--8----------------|------------------|------------------|---------------
    ---|------------------|
    
    
    ------------------------------|--------------------|------------------------
    --------11--13--14--|
    ------------------------------|--------------------|------------------------
    ----11--------------|
    ------------------------------|--------------------|-----------------8--10/-
    11------------------|
    ------11----------------------|--------------------|--------------8---------
    --------------------|
    ----------13--9/-8------8/-4h-|--6~-------6/-------|-----6--8--9------------
    --------------------|
    ------------------------------|--------------------|--6---------------------
    --------------------|
    
    
    ---------13------13~---|------------------11--|-------------------------|---
    -------------------|
    --9~-------------------|--------9/-7~---------|--6----6h--7h6~---21t6~--|--6
    h7h6--6------------|
    -----------------------|----------------------|-------------------------|---
    -------------------|
    -----------------------|----------------------|-------------------------|---
    -------------------|
    -----------------------|----------------------|-------------------------|---
    -------------------|
    -----------------------|----------------------|-------------------------|---
    -------------------|
    
    
    ------------------6~-6h-|--8----11h--10h9h8-----------|---------------------
    -------------------|
    ----x--4~--4h6----------|-------------------9h7~------|---------------------
    -------------------|
    ------------------------|---------------------------8-|---8h6/5-------------
    -------------------|
    ------------------------|-----------------------------|---------6h4---------
    -------------------|
    ------------------------|-----------------------------|---------------6--6h4
    /3-----------3h4h6-|
    ------------------------|-----------------------------|---------------------
    ---4h2h4h5h6-------|
    
    
    -----------------------------------|----------------------------------|
    -----------------------------------|----------------------------------|
    -----------------------------------|----------------------------------|
    -----------------------------------|----------------------------------|
    -----4h3h4h6h4-3h4h6h4h3h4h6h-4----|--4h6h8/-9/8h6h4h6h8-8/9/9h6h4----|
    -----------------------------------|----------------------------------|
    
    
    -------------------------------------------8h9h10h11--|--11h-9h8h13----13h11
    h9h13-13h-11h9-|
    ------------------------------------7h9h11------------|---------------------
    ---------------|
    ----------------------5h6h8h6h5h8h6-------------------|---------------------
    ---------------|
    ----------3h6h8h6h4h8---------------------------------|---------------------
    ---------------|
    ----4h6h8---------------------------------------------|---------------------
    ---------------|
    ------------------------------------------------------|---------------------
    ---------------|
    
    
    --11h--10h9h8/-9--9h8h7h6h9~--9h8h7h6/|--5----5h6h8~---8h5----------|
    --------------------------------------|--------------------6--------|
    --------------------------------------|-----------------------6-----|
    --------------------------------------|--------------------------7--|
    --------------------------------------|-----------------------------|
    --------------------------------------|-----------------------------|
    
    
    ---------------------------------|-----------------------------8h9h11h9-----
    ----8h9h11h9h8/6h|
    ---------------------------------|---------------------8h10h11----------8h10
    h11--------------|
    ---------------------------------|--------5h6h8h6h5/6-----------------------
    -----------------|
    ---------------------------------|--5h7h8-----------------------------------
    -----------------|
    --8---4-3h6h4h3-------3h4h6h4h3--|------------------------------------------
    -----------------|
    ----------------6h5--------------|------------------------------------------
    -----------------|
    
    
    --8h9h8h6-8----8~---8/---9--|--13----13/14h-9h13~---13--9-----|-------------
    ----------------------|
    ----------------------------|------------------------------9--|----------11h
    -9--9--9--------------|
    ----------------------------|---------------------------------|--11--10-----
    -----------8----------|
    ----------------------------|---------------------------------|-------------
    ----------------3/-4--|
    ----------------------------|---------------------------------|-------------
    -------------4--------|
    ----------------------------|---------------------------------|-------------
    ----------------------|
    
    
    -------------9--13--14--9--13h-9--11--|----11~-------11/16----13--|---------
    -13--------11-----|
    ------6/7-9---------------------------|--------------------9------|--9----9-
    -----9/-7------7/-|
    ----6---------------------------------|---------------------------|---------
    ------------------|
    --6-----------------------------------|---------------------------|---------
    ------------------|
    --------------------------------------|---------------------------|---------
    ------------------|
    --------------------------------------|---------------------------|---------
    ------------------|
    
    
    -----9--------------------------------|------------------------|------------
    -------------|
    --6--------9--------------------------|------------------------|------------
    -------------|
    --------6--------8--------------------|------------------------|----8--6~---
    --6/11-6h-8--|
    --------------6--------8/-6h-4--6/-8h-|--8~-----6--6/-4--6-----|------------
    -------------|
    --------------------6-----------------|---------------------4~-|------------
    -------------|
    --------------------------------------|------------------------|------------
    -------------|
    
    
    ----------------------|--11---9---8------------------------|----------------
    ------------|
    ----------------------|---------------11---9-----9---------|----------------
    ----------9-|
    --5~-----6--8~------8-|-----8---8---8----8---8/6---6/5-----|----5-6-7-8--6--
    8r---8h-6---|
    ----------------------|--------------------------------6---|--6-------------
    ------------|
    ----------------------|----------------------------------8-|----------------
    ------------|
    ----------------------|------------------------------------|----------------
    ------------|
    
    
    -------------------------|-------------------------------------|
    --9---7---6--4---2-2h-4--|--5----5h6h8h--4/-6h8h9/11-11h-9h8h9h|
    -------------------------|-------------------------------------|
    -------------------------|-------------------------------------|
    -------------------------|-------------------------------------|
    -------------------------|-------------------------------------|
    
    
    ----------------------------------------------------------------------------
    ---------|
    --11h9h8/9h11h13h11h9/8h9h11h9h8/9h11h3h11h9h11h9h8h9h11h9h8/9h11h13h11h9h11
    /13h11h9/|
    ----------------------------------------------------------------------------
    ---------|
    ----------------------------------------------------------------------------
    ---------|
    ----------------------------------------------------------------------------
    ---------|
    ----------------------------------------------------------------------------
    ---------|
    
    
    -----------12h13h15/16h--15h13h12~-----12--|--13h15~-15h13h12~--12h13h15~--1
    5h13h12~---|
    --11h13h14---------------------------------|--------------------------------
    -----------|
    -------------------------------------------|--------------------------------
    -----------|
    -------------------------------------------|--------------------------------
    -----------|
    -------------------------------------------|--------------------------------
    -----------|
    -------------------------------------------|--------------------------------
    -----------|
    
    
    --13------13----9--11------------|--------------------------------|
    -----------------------9---------|--------------------------------|
    --------------------------10--6--|--8-----------------------------|
    ---------------------------------|-----6---------------------8h-6-|
    ---------------------------------|--------8--4--6-----8h--6-------|
    ---------------------------------|-----------------4--------------|
    
    
    ----------------13h-11h13h11~-11h16h11-11h|--13h11~11h15h11~-11h13h11~----11
    h-13--|
    --------11-11h9---------------------------|---------------------------------
    ------|
    --10h-8-----------------------------------|---------------------------------
    ------|
    ------------------------------------------|---------------------------------
    ------|
    ------------------------------------------|---------------------------------
    ------|
    ------------------------------------------|---------------------------------
    ------|
    
    
    --15--11------------------------------------------------------|
    ---------14-11-------14---11----------------------------------|
    ---------------13-12---------13-12-------13-12----------------|
    -----------------------------------13-11-------13-11----------|
    -----------------------------------------------------13-12-11-|
    --------------------------------------------------------------|
    
    
    ------------------------------------------------|
    ------------------------------------------------|
    ------------------------------------------------|
    -----------10-11-13-11-10----------11-----------|
    --10-11-13----------------13-11-10--------------|
    --------------------------------------------11--|
    
    
    -------------------------------------------------------------------------|
    -------------------------------------------------------------------------|
    -------------------------------------------------------------10-11-12-13-|
    -------------------------10-11-12-13-------------10-11-12-13-------------|
    -------------10-11-12-13-------------10-11-12-13-------------------------|
    --9-11-12-13-------------------------------------------------------------|
    
    
    --------------------------------------11-13-14-15h11----15h11----15h11----|
    --------------------------11-12-13-14----------------14-------14-------14-|
    --------------10-11-12-13-------------------------------------------------|
    --10-11-12-13-------------------------------------------------------------|
    --------------------------------------------------------------------------|
    --------------------------------------------------------------------------|
    
    
    --17--15h13/11h13-13h15h13h11/10h11h13h11h10--------------------------------
    -----|
    ---------------------------------------------13h11h10-----------------------
    -----|
    ------------------------------------------------------13h11h10/7h8h10h8h7---
    -----|
    --------------------------------------------------------------------------10
    h8h7-|
    ----------------------------------------------------------------------------
    -----|
    ----------------------------------------------------------------------------
    -----|
    
    
    -----------------------------------------------------------9h|
    ---------------------------------------------------9-11h13---|
    ---------------------------------3h5-8-10h8h7h8h10-----------|
    ---------------------------3-4-5-----------------------------|
    --10h8h6/5h6h8h6h5/3-4-5-6-----------------------------------|
    -------------------------------------------------------------|
    
    
    --11h13h11h9----9h11h13h11h9----9h11h13h11h9----9h11h13h11h9----9h11h13h11h9
    -11h12h11h9/11h|
    -------------13--------------13--------------13--------------13-------------
    ---------------|
    ----------------------------------------------------------------------------
    ---------------|
    ----------------------------------------------------------------------------
    ---------------|
    ----------------------------------------------------------------------------
    ---------------|
    ----------------------------------------------------------------------------
    ---------------|
    
    
    --13h15h13h11/10h11-13h11h10h11h13h15-13h11/13h15h17h15h17--19h17h15h13/10--
    --------|
    ----------------------------------------------------------------------------
    --------|
    ----------------------------------------------------------------------------
    --------|
    ----------------------------------------------------------------------------
    --------|
    ----------------------------------------------------------------------------
    --------|
    ---------------------------------------------------------------------------1
    3/9/11--|
    
    
    --------11-------------------------------------|----------------------------
    ----------------|
    --14b------14-11----11-------------------------|----------------------------
    ----------------|
    -----------------13b---14h13-11----13----11----|----------------------------
    ----------------|
    --------------------------------13----13----13h|--11----13----11------------
    ----------11-15-|
    -----------------------------------------------|-----13----13----13-12-11/9-
    ----------------|
    -----------------------------------------------|----------------------------
    11~----13-------|
    
    
    --------------------------------------------11-16----------------|
    --------------------------------11-16-------------------11-16----|
    --------------------11-15-------------11-13-------------------11-|
    --------11-15-------------11-13-------------------11-13----------|
    --------------11-13----------------------------------------------|
    --11-13----------------------------------------------------------|
    
    
    -----11-16-------------------11-16-------11-16-------11-16----------|
    -----------------11-16-------------------------------------11-12/13-|
    --13-------------------11-13-------11-13-------11-13----------------|
    -----------11-13----------------------------------------------------|
    --------------------------------------------------------------------|
    --------------------------------------------------------------------|
    
    
    ---------------------------------------------------------------|
    --16--15-------16-15----15-16-15----15-16-15----15-16-15----15-|
    ---------17-15-------17----------17----------17----------17----|
    ---------------------------------------------------------------|
    ---------------------------------------------------------------|
    ---------------------------------------------------------------|
    
    
    -----------------------------------------------20------------------|
    --16-18-16-15-------16-18-16-15----------15-16-------16r-16h-16----|
    --------------17-15-------------17-15-17-----------0------------13-|
    ---------------------------------------------------0---------------|
    -------------------------------------------------------------------|
    -------------------------------------------------------------------|
    
    
    ----------------------------18-21-|------------------21---------||----------
    -------------|
    --19~-----18~------------19-------|--21~-----19~-----18h--19h18-||----------
    -------------|
    -------------------18-20----------|-----------------------------||*--20~----
    -----20/-----|
    ----------------20----------------|-----------------------------||*---------
    -------------|
    ----------------------------------|-----------------------------||----------
    -------------|
    ----------------------------------|-----------------------------||----------
    -------------|
    
    
    ------------------|------------------|-------------------||-----------------
    ------|
    ------------------|------------------|-------------------||-----------------
    ------|
    ------------------|------------------|------------------*||----------------x
    ------|
    ------------------|------------------|------------------*||-----------------
    -x----|
    ------------------|------------------|-------------------||--4h6--6---------
    ------|
    ------------------|------------------|-------------------||-----------------
    ------|
    
    
    -------------------------|------------------------|-------------------------
    -|
    -------------------------|------------------------|-------------------------
    -|
    -------------------------|------------------------|-------------------------
    -|
    -------------------------|------------------------|------------------4---4--
    -|
    --4h6--6-------4-4---4---|--4h6--6---------x--x---|--4h6--6-----x--4---4----
    -|
    -------------------6-----|----------------------6-|-------------------------
    -|
    
    
    --------------------------|------------------------|------------------------
    -|
    --------------------------|------------------------|------------------------
    -|
    ---------------x-x-x------|------------------------|-------------x--6~---x-x
    -|
    ---------------x-x-x------|------------------------|-------------x-------x-x
    -|
    --4h6--6----------------4-|--4h6--6-----x------x-x-|--4h6--6----------------
    -|
    ----------------------6---|------------------------|------------------------
    -|
    
    
    --6---6--------------6--|--6----6-----------------|--6----6-----------------
    |
    --7---7--------------7--|--7----7------------5----|--7----7-----------------
    |
    --8---8-----x----x-x----|--6h8--8-------6--6-6-6--|--6h8--8-----x----x--x---
    |
    --8---8-----x----x-x----|--6h8--8-------6--6---6--|--6h8--8-----x----x--x-8-
    |
    ------------------------|-------------------------|-------------------------
    |
    ------------------------|-------------------------|-------------------------
    |
    
    
    --6----6---------------|--6----6---------------6-|--6----6------------------
    |--6----6-------------|
    --7----7-------7-------|--7----7---------------7-|--7----7------------6-6h7-
    |--7----7-------------|
    --6h8--8-------10------|--6h8--8-----x----x--x---|--6h8--8-------6--6-6-6---
    |--6h8--8-------------|
    --6h8--8-------10------|--6h8--8-----x----x--x---|--6h8--8-------x--x-------
    |--6h8--8-------------|
    -----------------------|-------------------------|---------------4--4-------
    |---------------------|
    -----------------------|-------------------------|--------------------------
    |---------------------|
    
    
    --6----6---6---6---6----|--4---4-----4---4-----4------|--4---4-----4---4----
    -4------|
    --7----7---7---7---7----|--4---4-x-x-4---4-x-x-4--x-x-|--4---4-x-x-4---4-x-x
    -4--x-x-|
    --6h8--8---8---8---8----|--5---5-x-x-5---5-x-x-5--x-x-|--5---5-x-x-5---5-x-x
    -5--x-x-|
    --6h8--8---8---8---8----|--6---6-x-x-6---6-x-x-6--x-x-|--6---6-x-x-6---6-x-x
    -6--x-x-|
    ------------------------|--x---x-----x---x-----x------|--x---x-----x---x----
    -x------|
    ------------------------|--4---4-----4---4-----4------|--4---4-----4---4----
    -4------|
    
    
    --4---4-----4---4-----4------|---------------------------------------|
    --4---4-x-x-4---4-x-x-4--x-x-|--9--9--x-9--x-x-9--9--x-9--x-x--------|
    --5---5-x-x-5---5-x-x-5--x-x-|--11-11-x-11-x-x-11-11-x-11-x-x--------|
    --6---6-x-x-6---6-x-x-6--x-x-|--10-10-x-10-x-x-10-10-x-10-x-x--------|
    --x---x-----x---x-----x------|--------------------------------4--6---|
    --4---4-----4---4-----4------|-------------------------------------x-|
    
    
    ---------------------------------|------------------------------------|
    --11---11-x-x-11---x-x-11-9--x-x-|--9-11-11-11-x-x-11---11-x-x-9--x-x-|
    --8----8--x-x-8----x-x-8--6--x-x-|--6-8--8--8--x-x-8----8--x-x-6--x-x-|
    -------x--x-x-x----x-x-x--x--x-x-|-------x--x--x-x-x----x------x--x-x-|
    --6----6------6--------6--4------|--4/6--6--6------6----6------4------|
    ---------------------------------|------------------------------------|
    
    
    ----------------------------------|---------------------------------|-------
    -----------|
    --9-11-11-11-x-x-11---11---x-9----|--9/11--11--x-11--11-11-x-x-9----|-------
    -----------|
    --6-8--8--8--x-x-8----8--8-x-6----|--6/8---8---x-8---8--8--x-x-6----|-------
    -----------|
    -------x--x--x-x-x----x--x---x----|--x-----x---x-x---x--x--x-x-x----|-------
    -----------|
    --4/6--6--6------6----6--6---4----|--4/6---6-----6---6--6------4----|-------
    -----------|
    ----------------------------------|---------------------------------|-------
    -----------|
    
    
    ------------------|------------------|------------------|-------------------
    |-------------------|
    ------------------|------------------|------------------|-------------------
    |-------------------|
    ------------------|------------------|------------------|-------------------
    |-------------------|
    ------------------|------------------|------------------|--------------4/---
    |--6/---------------|
    ------------------|------------------|------------------|--------------4/---
    |--6----------------|
    ------------------|------------------|------------------|--------------2/---
    |--4----------------|
     

    Тональность:

    Это должно быть в ТОП-листе! - Топ-лист композиций



    Назад
    Рекомендуем посмотреть другие песни исполнителя «Dream Theater»:

    • Комменты Fb ()
    • Комменты ВК



    Добавить в Избранное Браузера
    Сохранить здесь Очистить


    x

    0


    +
    -

    +
    -

    -

    Авторизация





    Зарегистрироваться

    M

    Дата и время

    • 07:34:34
       

    Социальные ссылки


    Наши приложения

    • Muzbank App Play Market
    • Muzbank Amazon App