MUZBANK


МУЗЫКАЛЬНО-ИНФОРМАЦИОННЫЙ БАНК





ДДвойной Фёдр • Сессия (аккорды и текст - chords & lyrics)


971

Print

Видео «Сессия (Двойной Фёдр)»

Видео клипы к песне подбираются автоматически сайтом youtube. Возможны некоторые несоответствия клипов песне.

↑ Спрятать рекламу ↑





 


Am Em
И вроде всё зачепок, и вроде я на коне:
Dm C E
Меня не ищет ФСБ, и не мучают вши,
И Ксюха, эта сволочь, вернулась ко мне,
Но меня не согревает тепло её души
Солнце сияет за моим окном,
Но я ему не рад, ему не рад я,
С тех пор как пришла без приглашенья в мой дом
Моя экзаменационная сессия.

Припев:
F E
Моя экзаменационная сессия!
Am D
Моя экзаменационная сессия!
F E Am
Моя экзаменационная сессия! Мне её не сдать!

E||--------------------------|--------------------------|
B||-------1----0--1--0-------|-------1----0--1--0-------|
G||---------------------2----|---------------------2----|
D||--------------------------|--------------------------|
A||--------------------------|--------------------------|
E||--------------------------|--------------------------|


---------------------------|---------------------------||
--------1----0--1--0--3----|-----3--1----0--1--0-------||
-----2---------------------|----------------------2----||
---------------------------|---------------------------||
---------------------------|---------------------------||
---------------------------|---------------------------||
 

Тональность:

Это должно быть в ТОП-листе! - Топ-лист композиций



Назад
Рекомендуем посмотреть другие песни исполнителя «Двойной Фёдр»:

  • Комменты Fb ()
  • Комменты ВК



Добавить в Избранное Браузера
Сохранить здесь Очистить


x

0


+
-

+
-

-

Авторизация





Зарегистрироваться

M

Дата и время

  • 17:03:59
     

Социальные ссылки


Наши приложения

  • Muzbank App Play Market
  • Muzbank Amazon App