MUZBANK


МУЗЫКАЛЬНО-ИНФОРМАЦИОННЫЙ БАНК





ДДюна • Лимоновый сад (аккорды и текст - chords & lyrics)


2570

Print

Видео «Лимоновый сад (Дюна)»

Видео клипы к песне подбираются автоматически сайтом youtube. Возможны некоторые несоответствия клипов песне.

↑ Спрятать рекламу ↑





 
              G
              За морями есть лимоновый сад,
              Я найду лимон и буду рад,
                            Em
              Но я тебе не дам
                                 G
              И не смей меня винить
              Посмотрите, до чего он хорош,
              Но на дороге ты его не найдешь,
              Попробуй, сделай сам,                            
              Не буду я тебя учить

            ПРИПЕВ:

           F  Bb                F
              Растут лимоны на высоких горах,
              Ab
              На крутых берегах,
              Bb                     F
              Для крутых - короче, ты не достанешь.
                  Bb                  F                Ab
              Я вижу цель, я за лимоном дотянуться хочу,
                            Bb              F             G
              Я за лимоном лечу и крутизной наслаждаюсь...

              Страна Лимония - страна без забот,
              В страну Лимонию ведет подземный ход,
              Найди, попробуй, сам,
              Не буду я тебя учить.
              Трудна дорога и повсюду обман,
              Но чтоб не сбиться, у меня есть план,
              Но я тебе не дам
              И не смей меня просить

             ( ПРИПЕВ )

              { Повторяются 4 первых строчки песни }
              Страну Лимонию ищу с давних пор,
              Мне надоел вечнозеленый помидор -
              Его ты кушай сам
              Не смей его со мной делить!
 
Табулатура на куплеты:
     G
E|---------------------------|---------------0------|
B|-----0-0-----3--3--0-------|-----0-0-----3----0---|
G|--0------2-0---------(0)---|--0------2-0----------|
D|--0------------------------|--0-------------------|
A|--2------------------------|--2-------------------|
E|--3------------------------|--3-------------------|


     Em
E|---------------------0-0-|---------------3-------|
B|--0------------------0-0-|---------------0-------|
G|----2-0---2--2--0----0-0-|--2--2--2-0----0-------|
D|----------2--------------|--2------------0-------|
A|----------2--------------|--2------------2-------|
E|---------0-----------0---|--0------------3-------|


Соло на припев:
   Bb            F                  G#        Bb        F
E|-------------------------------|---------------------------|
B|-------------------------------|---------------------------|
G|-----0---3--3---5--3--2-0---2---|-1-0---1----3-3-3-1-0------|
D|---3---------------------3-----|-----3----------------3----|
A|-------------------------------|------------------------3--|
E|-------------------------------|---------------------------|

Тональность:

Это должно быть в ТОП-листе! - Топ-лист композиций



Назад
Рекомендуем посмотреть другие песни исполнителя «Дюна»:

  • Комменты Fb ()
  • Комменты ВК



Добавить в Избранное Браузера
Сохранить здесь Очистить


x

0


+
-

+
-

-

Авторизация





Зарегистрироваться

M

Дата и время

  • 04:43:41
     

Социальные ссылки


Наши приложения

  • Muzbank App Play Market
  • Muzbank Amazon App