MUZBANK


МУЗЫКАЛЬНО-ИНФОРМАЦИОННЫЙ БАНК





EEagles • Get Over It (аккорды и текст - chords & lyrics)


502

Print

Видео «Get Over It (Eagles)»

Видео клипы к песне подбираются автоматически сайтом youtube. Возможны некоторые несоответствия клипов песне.

↑ Спрятать рекламу ↑






Intro Solo

E|-----------------------------------|
B|-----------------------------------|
G|-------------------10-13--13--10~/-|
D|-------5s9---12--------------------|
A|-----------------------------------|
E|-----------------------------------|

E|-----------------------------------------------|
B|-----------------------------------------------|
G|----------10-13-13b15r---12--10----------------|
D|--11s12---------------------------9s12--12--12-|
A|-----------------------------------------------|
E|-----------------------------------------------|

E|---------------------------------------|
B|---------------------------------------|
G|------13--10---------------------------|
D|----------------12--9------------------|
A|-------------------------12--9---------|
E|---------------------------------12--9-|

Main Riff/Chorus
+++++++++++++
You can play it by sliding while holding the Barred
D|-Shape..much easier this way
     D
E|----------------------------------------|
B|--7s10~-----7s10~----7s10~--------------|Make a little Vibrato
G|7-7s9~---7--7s9~--7--7s9~---7--14-------|(stop)- at the end
D|7-7s9~---7--7s9~--7--7s9~---7--14(stop)-|of the slide
A|5--------5--------5---------5-----------|
E|5--------5--------5---------5-----------|

Verse
++++
Listen to the song to figure out the strumming pattern,it's
simple just alternating between D/D7-G/G7-A/A7
E|----------------3-3--3-3------5-5-5-5-|
B|----------------7-3--7-3------8-5-8-5-|
G|--7-5-7-5-------4-4--4-4------6-6-6-6-|
D|--7-7-7-7-----------------------------|
A|--5-5-5-5-----------------------------|
E|--------------------------------------|

D/D7
I turn on the tube
What do I see
A whole lotta people
Cryin' Don't blame me,They point their
Crooked little fingers
At everybody else
Spend all of their time
Feeling Sorry for themselves

G/G7
Victim of this
Victim of that

A/A7
Your momma's too thin and
Your daddy's too fat!

Chours
+++++
D5
Get over it  (The Slide in the Intro)
F5
Get over it  (The Slide again)
G5
All this whinin', cryin' (One more time)
Pitchin' a fit
D5
Get over it
Get over it

First Solo
+++++++
Second Guitar can Play Power Chords
D5                                                   F5
E|----------------------------------------------------------|
B|----------------------------------------------------------|
G|------------9--12-----9--9s12-12-14--9-12-14-9-12-14-9b12-|
D|--------------------12------------------------------------|
A|----------------------------------------------------------|
E|----------------------------------------------------------|
 G5                                            A5            D5
E|---------------------------------------15-17-15--------------|
B|------------------------------------16----------16-----12-16-|
G|---10-8-----10-8-----10-8---10-8s15----------------15--------|
D|-9------9-9------9-9------9----------------------------------|
A|-------------------------------------------------------------|
E|-------------------------------------------------------------|

Second Verse
++++++++++
D/D7
You said you haven't been the same
Since you had your little crash
But you might feel better
If they gave you some cash
The more I think about it
Old Billy was right
Let's kill all the lawyers
Kill 'em tonight!
G7/G
Don't wanna work
You want to live like a king
A7/A
But the big bad world
Doesn't owe you a thing

Repeat Chours

Second Solo
+++++++++
Same Power chords Progression
E|-----------------------------------------------------------|
B|-----------------------------------------------------------|
G|---------------------------------------12s13b-13b-12-------|
D|-9s16p--12s9-9s12--15b16-15s12--9s12------------------9s12-|
A|-----------------------------------------------------------|
E|-----------------------------------------------------------|

E|---------------------------------------------------|
B|-19-16-----15b16---------15-15---15-15----15-15----|
G|--------17--------------------17-------17-------17-|
D|-------------------12s15---------------------------|
A|---------------------------------------------------|
E|---------------------------------------------------|

E|--------------------------------------------|
B|15-----15-----15-----15-----15-20-----------|
G|----17-----17-----17-----17-----------------|
D|-----------------------------------12s15-12-|
A|--------------------------------------------|
E|--------------------------------------------|

E|--------------------------------------|
B|----15-15------15-----20--------------|
G|17----------17-----17-----------------|
D|-----------------------------12s15-12-|
A|--------------------------------------|
E|--------------------------------------|

E|------------------------------------------------------|
B|-20b21r20-16-------------------21----21-20------------|
G|----------------15hp17--115s7--17-17-17-17------------|
D|---------------------------------------------3s5--3s5-|
A|---------------------------------------------3s5--3s5-|
E|------------------------------------------------------|

Bridge
+++++
C5                                                        C5/D5
E|-------------------------------------------------------------|
B|-------------------------------------------------------------|
G|-------------------------------------------------------------|
D|---10-------------------------------------------10s12--12-12-|
A|---10-------------------------------------------10s12--12-12-|
E|---8--------------------------------------------8s10---10-10-|
It's like going to confession every time I hear you Speak
E|-----------|
B|-----------|
G|-----------|
D|---------5-|
A|---------5-|
E|---------3-|
You're making the most of your losing streak
E|---------------------------------|
B|---------------------------------|
G|-------------------------------9-|
D|--7----------------------------9-|
A|--7----------------------------7-|
E|--5------------------------------|
   Some call it sick I call it weak

Verse :
+++++
You're draggin' around
Like a ball and chain
You wallow in the guilt
You wallow in the pain
You wave it like a flag
You wear it like a crown
Got your mind in the gutter
Bringin' everybody down

You bitch about the present
Blame it on the past

I'd like to find you in a child
And kick it's little ass!

Outro :
+++++
Same Power Chords Progression
E|-----------------------------------------------------|
B|--20-20-15-13-15--------------15-15s13---------------|
G|--19-19---------------------14---------------14------|
D|-----------------------12-15----------------------15-|
A|-----------------------------------------------------|
E|-----------------------------------------------------|

E|----------------------------------------------------|
B|-------------15-17b19~--17hp19-17-------------------|
G|---------14-----------------------19----19-17-------|
D|-----15---------------------------------------19-16-|
A|----------------------------------------------------|
E|----------------------------------------------------|

                          Slide Up
E|---------------20b--20-17---------------20s-|
B|---------------19b----------19----------19s-|
G|---------17---------------------17s19-------|
D|16-19---------------------------------------|
A|--------------------------------------------|
E|--------------------------------------------|

E|-----------------------------------------------|
B|----------18p15--13-15-13-----13---------------|
G|-15h17--------------------15-----15--15p13-----|
D|--------------------------------------------15-|
A|-----------------------------------------------|
E|-----------------------------------------------|

E|------------------------------------------|
B|-18-15----18-15------18-15-----18-15------|
G|-------17---------17--------17---------17-|
D|------------------------------------------|
A|------------------------------------------|
E|------------------------------------------|

E|----------------------------------------------|
B|----18-15-------------------------------------|
G|-----------17-15hp17-13------15-13------------|
D|-------------------------15----------15---12~-|
A|------------------------------------------12~-|
E|------------------------------------------10~-|

Тональность:

Это должно быть в ТОП-листе! - Топ-лист композиций



Назад
Рекомендуем посмотреть другие песни исполнителя «Eagles»:

  • Комменты Fb ()
  • Комменты ВК



Добавить в Избранное Браузера
Сохранить здесь Очистить


x

0


+
-

+
-

-

Авторизация





Зарегистрироваться

M

Дата и время

  • 05:10:50
     

Социальные ссылки


Наши приложения

  • Muzbank App Play Market
  • Muzbank Amazon App