MUZBANK


МУЗЫКАЛЬНО-ИНФОРМАЦИОННЫЙ БАНК





EEagles • Love Will Keep Us Alive (аккорды и текст - chords & lyrics)


1131

Print

Видео «Love Will Keep Us Alive (Eagles)»

Видео клипы к песне подбираются автоматически сайтом youtube. Возможны некоторые несоответствия клипов песне.

↑ Спрятать рекламу ↑





e||--------0-----------------0---|---------0-----------------0-|
B||------------0----------0------|-------------0---------0-----|
G||-----2-------------2----------|------2-------------2--------|
D||-2----------------------------|---2-------------------------|
A||-0----------------------------|---0-------------------------|
E||------------------------------|-----------------------------|

e|-------0------------------0-|----------0----------------0----|
B|-----------0-----------0----|-------------0----------0-------|
G|-----2-------------2--------|-------2-------------2----------|
D|-2--------------------------|---2----------------------------|
A|----------------------------|--------------------------------|
E|-2--------------------------|---2----------------------------|

e|--------0-----------------0-|---------0----------------0-----|
B|-----------0-----------0----|------------0----------0--------|
G|-2---2--------------2-------|---2--2-------------2-----------|
D|-0--------------------------|---0----------------------------|
A|----------------------------|--------------------------------|
E|----------------------------|--------------------------------|

e|-------0------------------0-|-------------0--------------0---|
B|----------0------------0----|----------0-------------0-------|
G|----2---------------2-------|-------2---------1 / 2----------|
D|-2--------------------------|---2-------------0--------------|
A|----------------------------|--------------------------------|
E|-0--------------------------|---0-------------0--------------|

e|--------0-----------------0-|---------0-----------------0----|
B|------------0----------0----|-------------0---------0--------|
G|-----2-------------2--------|------2-------------2-----------|
D|-2--------------------------|---2----------------------------|
A|-0--------------------------|---0----------------------------|
E|----------------------------|--------------------------------|

e|-------0---------------0----|----------0----------------0----|
B|-----------0--------------0-|-------------0----------0-------|
G|-----2-------------2--------|-------2-------------2----------|
D|-2--------------------------|---2----------------------------|
A|----------------------------|--------------------------------|
E|-2--------------------------|---2----------------------------|

e|--------0-----------------0-|---------0----------------0-----|
B|-----------0-----------0----|------------0----------0--------|
G|-2---2--------------2-------|---2--2-------------2-----------|
D|-0--------------------------|---2----------------------------|
A|----------------------------|--------------------------------|
E|----------------------------|--------------------------------|

e|--------0-----------------0-|---------0-----------------0---||
B|------------0----------0----|-------------0---------0-------||
G|-----2-------------2--------|------2-------------2----------||
D|-2--------------------------|---2---------------------------||
A|-0--------------------------|---0---------------------------||
E|----------------------------|-------------------------------||

e|--------2-----------------2-|---------2-----------------2----|
B|------------3----------3----|-------------3---------3--------|
G|-2---2-------------2--------|---2---2------------2-----------|
D|-0--------------------------|---0----------------------------|
A|----------------------------|--------------------------------|
E|----------------------------|--------------------------------|

e|--------2-----------------2-|----------2----------------2----|
B|------------2----------2----|--------------2--------2--------|
G|-------------------2--------|--------------------2-----------|
D|-4---4----------------------|---4---4------------------------|
A|-4--------------------------|---4----------------------------|
E|----------------------------|--------------------------------|

e|--------2-----------------2-|----------2----------------0-|
B|------------3----------3----|-------------3---------3-----|
G|-2---2-------------2--------|---2---2------------2--------|
D|-0--------------------------|---0-------------------------|
A|----------------------------|-----------------------------|
E|----------------------------|-----------------------------|

                                   (slide but also pluck)
e|------------0-------------0-|-------------0----------------||
B|--------0--------------0----|----------0-------------------||
G|-1---2----------1 / 2-------|---1-/-2-----/---1------------||
D|-2--------------0-----------|------------------------------||
A|----------------------------|---4---------/---2------------||
E|-0--------------------------|------------------------------||

e|--------0-----------------0-|-------0-----------------0--0-||
B|------------0----------0----|-----------0---------0------0-||
G|-----2-------------2--------|----2-------------2---------2-||
D|-2--------------------------|-2--------------------------2-||
A|-0--------------------------|-0--------------------------0-||
E|----------------------------|------------------------------||

Lyrics :

I was standing
All alone against the world outside
You were searching
For a place to hide

Lost and lonely
Now you've given me the will to survive
When we're hungry...love will keep us alive

Don't you worry
Sometimes you've just gotta let it ride
The world is changing
Right before your eyes
Now I've found you
There's no more emptiness inside
When we're hungry...love will keep us alive

I would die for you
Climb the highest mountain
Baby, there's nothing I wouldn't do

I was standing
All alone against the world outside
You were searching
For a place to hide
Lost and lonely
Now you've given me the will to survive
When we're hungry...love will keep us alive
When we're hungry...love will keep us alive
When we're hungry...love will keep us alive

Тональность:

Это должно быть в ТОП-листе! - Топ-лист композиций



Назад
Рекомендуем посмотреть другие песни исполнителя «Eagles»:

  • Комменты Fb ()
  • Комменты ВК



Добавить в Избранное Браузера
Сохранить здесь Очистить


x

0


+
-

+
-

-

Авторизация





Зарегистрироваться

M

Дата и время

  • 08:35:42
     

Социальные ссылки


Наши приложения

  • Muzbank App Play Market
  • Muzbank Amazon App