MUZBANK



A MOST COMPLETE BANK OF MUSIC INFORMATION

МУЗЫКАЛЬНО-ИНФОРМАЦИОННЫЙ БАНК







    EEl Dorado • Jazz Song (аккорды и текст - chords & lyrics)


    335

    Print

    Видео «Jazz Song (El Dorado)»

    Видео клипы к песне подбираются автоматически сайтом youtube. Возможны некоторые несоответствия клипов песне.

    ↑ Спрятать рекламу ↑






     
    
    
    band: el dorado
              
              song: jazz song
              
              riff
              
              g-------------------------------------0-2-3-2-0-------0-2-3-2-0-
              d-----0-2-3-2-0-------0-2-3-2-0-----2-----------2---2----------2
              a---2-----------2---2-----------2-3---------------3-------------
              e-3---------------3---------------------------------------------
              
              chorus
              
              g-----------
              d-----------
              a----22-33-5
              e-33--------
              
              ending
              
              g-------------------
              d-------------------
              a----22-33-5~~~~~3--
              e-33---------------3
              
              *order*
              
              intro   guitar only
              riff    4x
              chorus  4x
              riff    4x
              chorus  3x
              ending  1x
     

    Тональность:

    Это должно быть в ТОП-листе! - Топ-лист композиций



    Назад
    Рекомендуем посмотреть другие песни исполнителя «El Dorado»:

    • Комменты Fb ()
    • Комменты ВК



    Добавить в Избранное Браузера
    Сохранить здесь Очистить


    x

    0


    +
    -

    +
    -

    -

    Авторизация





    Зарегистрироваться

    M

    Дата и время

    • 03:27:15
       

    Социальные ссылки


    Наши приложения

    • Muzbank App Play Market
    • Muzbank Amazon App