MUZBANK


МУЗЫКАЛЬНО-ИНФОРМАЦИОННЫЙ БАНК





EElton John • Funeral For A Friend (аккорды и текст - chords & lyrics)


569

Print

Видео «Funeral For A Friend (Elton John)»

Видео клипы к песне подбираются автоматически сайтом youtube. Возможны некоторые несоответствия клипов песне.

↑ Спрятать рекламу ↑





1 2
Cm Fm Cm
e:--------------------------|--------------------------|
B:--1--------0--1-----------|--------------------------|
G:--0-----------0-----0-----|--1-----1-----0-----------|
D:--1-----------1-----1-----|--------------1-----1-----|
A:--------------------3-----|--3-----3-----------3-----|
E:--------------------------|--------------------------|
a x b x c x d x a x b x c x d x


3 4
Fm G Cm G Cm Bb
e:--------------------------|--------------------------|
B:--------------------------|--------------------------|
G:--------------0-----0-----|--------------------------|
D:--3-----3-----0-----0-----|--------------------0-----|
A:--3-----3-----------------|--3-----2-----3-----1-----|
E:--------------------------|--3-----3-----3-----------|
a x b x c x d x a x b x c x d x


5 6
Eb Cm Fm Cm G G7
e:--------------------------|--------------------------|
B:--------------------------|--------------------------|
G:--------------------------|--------------------------|
D:--1--------0--1-----3-----|--1-----------0-----3-----|
A:--1-----------3-----3-----|--3-----------2-----2-----|
E:--------------------------|--------------------------|
a x b x c x d x a x b x c x d x


7 8
Cm G G7 C
e:--------------------------|--------------------------||
B:--------------------------|--------------------------||
G:--0-----------0-----------|--0-----------------------||
D:--1-----------0-----3-----|--2-----------------------||
A:--3-----------2-----------|--3-----------------------||
E:--------------------------|--------------------3-----||
a x b x c x d x a x b x c x d x


9 10
Cm Fm Cm
e:--------------------------|--------------------------|
B:--4-----------------6-----|--4-----------------4-----|
G:--5-----------------5-----|--5-----5-----------5-----|
D:--5-----------------6-----|--5-----5-----5-----5-----|
A:--------------------------|--------------------------|
E:--------------------------|--------------------------|
a x b x c x d x a x b x c x d x


11 12
Ab Ab Bb Ab Bb
e:--------------------------|--------------------------|
B:--------------------4-----|--6-----4-----------6-----|
G:--5-----------------5-----|--7-----5-----------7-----|
D:--6-----------------6-----|--8-----6-----------8-----|
A:--6-----------------------|--------------------------|
E:--------------------------|--------------------------|
a x b x c x d x a x b x c x d x


13 14
Cm Fm Cm
e:--------------------------|--------------------------|
B:--4-----------------6-----|--4-----------------4-----|
G:--5-----------------5-----|--5-----5-----------5-----|
D:--5-----------------6-----|--5-----5-----5-----5-----|
A:--------------------------|--------------------------|
E:--------------------------|--------------------------|
a x b x c x d x a x b x c x d x


15
Ab Ab
e:--------------------------|
B:--------------------4-----|
G:--5-----------------5-----|
D:--6-----------------6-----|
A:--6-----------------------|
E:--------------------------|
a x b x c x d x


16
Bb Ab
e:--------------------------------------------3-h4-----|
B:-----6-----------4-----------------3-h4-h6-----------|
G:-----7-----------5-----------3-h5--------------------|
D:-----8-----------6-----------------------------------|
A:-----------------------------------------------------|
E:-----------------------------------------------------|
a x b x c x d x


17 (Hold) 18
Bb Bb
e:--6.......................|..6-----------------------|
B:--6.......................|..6-----------------8--9--|
G:--7.......................|..7-----------------------|
D:--8.......................|..8-----------------------|
A:--------------------------|--------------------------|
E:--------------------------|--------------------------|
a x b x c x d x a x b x c x d x


19 29 (Hold)
Eb Cm Ab
e:--6--------6--6-----7-----|--------------------------|
B:--8-----------------7-----|--4-----------------------|
G:--8-----------------7-----|--5-----------------------|
D:--------------------------|--6-----------------------|
A:--------------------------|--------------------------|
E:--------------------------|--------------------------|
a x b x c x d x a x b x c x d x


21 (Hold) 22 (Hold)
F Bdim
e:--1-----------------------|--1-----------------------|
B:--1-----------------------|--3-----------------------|
G:--2-----------------------|--1-----------------------|
D:--3-----------------------|--3-----------------------|
A:--------------------------|--2-----------------------|
E:--------------------------|--------------------------|
a x b x c x d x a x b x c x d x


23 24 (Slower - 90 bpm)
E E A (triplet)
e:--0-----------------------||--------------------------|
B:--0-----------------------||--------------------------|
G:--1-----------------------||--------------------------|
D:--2-----------------2-----||------------------------2-|
A:--2-----------------2-----||--4-------------------0---|
E:--------------------------||--5-----------------0-----|
a x b x c x d x a x b x c x d x


25 26
Dm (triplet) G (triplet)
e:--------------------------|--------------------------|
B:--------------------------|--------------------------|
G:--------------------------|--0-----------------------|
D:--3---------------------3-|--0------------0----0-----|
A:--5-------------------5---|--2-------------------2---|
E:--------------------5-----|--3--------------3------3-|
a x b x c x d x a x b x c x d x


27 28
Bdim E E G Am
e:--------------------------|--------------------------|
B:--------------------------|--------------------------|
G:--------------------------|-----------------------0--|
D:--3-----2-----2-----0-----|--------------------2-----|
A:--5-----2-----2-----2-----|--3-----------2-h3--3-----|
E:--------0-----0-----3-----|--5-----------------------|
a x b x c x d x a x b x c x d x


29 30
Gm Bb Bb E (triplet)
e:--------------------------|--------------------1-----|
B:--------------------------|--------------------------|
G:--0-----------------------|--1---------------1----1--|
D:--0-----3-----------------|--2-------------2---------|
A:--1-----5-----5-----------|--2-----------------------|
E:--------------------5-----|--0-----------------------|
a x b x c x c x a x b x c x d x


31 (triplet) 32
E E7 A (triplet)
e:--0-----------------------|--------------------0-----|
B:--0-----------------3-----|--2--------------------2--|
G:--1---------------1---1---|--2---------------2-----2-|
D:--2-------------2------2--|--2-------------2---------|
A:--2-----------------------|--0-----------------------|
E:--------------------------|--------------------------|
a x b x c x d x a x b x c x d x


33 34
Dm (triplet) G
e:--1-----------------1-----|--3-----------------------|
B:--3-------------------3---|--3-------------------0h3-|
G:--2---------------2-----2-|--4---------------0h2-----|
D:--0-------------0---------|----------------0---------|
A:--------------------------|--------------------------|
E:--------------------------|--------------------------|
a x b x c x d x a x b x c x d x


35 36
Fdim E E G Am
e:--1-----0-----0-----------|---------------------0h3--|
B:--0-----0-----0-----3-----|--1-----------0h1---------|
G:--1-----1-----1-----4-----|--2----------------2------|
D:--0-----2-----2-----5-----|--2-----------------------|
A:--------------------------|--0-----------------------|
E:--------------------------|--------------------------|
a x b x c x d x a x b x c x d x


37 38
Gm Bb E
e:--3-----1-----------------|--0-----------------0-----|
B:--3-----3-----3-----------|--0------------------0----|
G:--3-----3-----3-----2-----|--1---------------1---1---|
D:--------------------------|--2--------------2-----2--|
A:--------------------------|--2-----------------------|
E:--------------------------|--------------------------|
a x b x c x d x a x b x c x d x


39 40
Am Am Am G
e:--5-----------------5--5--|--------------------------|
B:--5-----------------5--5--|--0-----------0--1--3--0--|
G:--5-----------------5--5--|--------0-----0--0--2-----|
D:--7-----------------7--7--|--0-----------------------|
A:--------------------------|--------------------------|
E:--------------------------|--------------------------|
a x b x c x d x a x b x c x d x


41 42
Csus C Csus C Bb Ab Abd
e:--------------------------|--------------------------|
B:--6-----5-----6--5--3-----|--3-----------4-----6-----|
G:-----5-----5-----------5--|--3-----3-----5-----4-----|
D:--5-----5-----5-----------|--3-----3-----6-----6-----|
A:--------------------------|--------------------------|
E:--------------------------|--------------------------|
a x b x c x d x a x b x c x d x


43 44
Ebs Eb Eb Bb C
e:--4-----3-----------------|--0-----------0h1---3-----|
B:--4-----4-----4-----6-----|--1-----1-----1-----1-----|
G:--3-----3-----3-----7-----|--0-----0-----0-----0-----|
D:--------------------8-----|--------------------------|
A:--------------------------|--------------------------|
E:--------------------------|--------------------------|
a x b x c x c x a x b x c x d x


45 46
Fd Fm D D D+ D7
e:--------------------------|--------------------------|
B:--3-----1-----4--3--1-----|--------------------1-----|
G:--1-----1-----1--1--3--3--|--2-----------2--3--2-----|
D:--3-----3-----3--3--1--5--|--4-----------4--4--0-----|
A:--------------------------|--5-----------5--5--0-----|
E:--------------------------|--------------------------|
a x b x c x d x a x b x c x d x


47 48
C G Fd E Fd
e:--0-----------------------|--1-------0h1-0-----------|
B:--1-----------3--3--3--3--|--0-----------0-----0-----|
G:--0-----------4--4--4--4--|--1-----------1-----1-----|
D:--------------5--5--5--5--|--0-----------2-----0-----|
A:--------------------------|--------------------------|
E:--------------------------|--------------------------|
a x b x c x d x a x b x c x d x


49 50
Am D
e:--------------------------|--------------------2-----|
B:-0h1----1--------0h1p0h1--|--3-----3-----3-----3-----|
G:--2-----2-----2-----------|--2-----2-----2-----2-----|
D:--2-----2-----2-----------|--4-----4-----4-----4-----|
A:--3-----3-----3-----------|--------------------------|
E:--------------------------|--------------------------|
a x b x c x d x a x b x c x d x


51 52
Em (triplet) E7
e:--2-----3-----3-----------|--4--------4--5-----7-----|
B:--0-----0-----0-----------|--3--------3--3-----5-----|
G:--------0-----0---------0-|--4--------4--------------|
D:--2-----2-----2-------2---|--------------------------|
A:--------------------2-----|--------------------------|
E:--------------------------|--------------------------|
a x b x c x d x a x b x c x d x


53/54 [version #1] [play either version of these tw o bars]
Am
e:-------------------------------------------------------------------|
B:----------0---------------0---------------0---------------0--------|
G::-------2---2-----------2---2-----------2---2-----------2---2-----:|
D:------2-------2-------2-------2-------2-------2-------2-------2----|
A:--0h3-----------3p0h3-----------3p0h3-----------3p0h3-----------3--|
E:-------------------------------------------------------------------|
a x b x c x d x


53/54 [version #2] [this version is closer to the original]
Am
e:--------5h7p5-----------5h7p5-----------5h7p5-----------5h7p5------||
B:------5-------5-------5-------5-------5-------5-------5-------5----||
G::---5-----------5---5-----------5---5-----------5---5-----------5-:||
D:--7---------------7---------------7---------------7----------------||
A:-------------------------------------------------------------------||
E:-------------------------------------------------------------------||
a x b x c x d x


55/57/59/61 [play these two bars four times]
Am Em Am
e:-----------------0--------0--0--0--3-----3--0-----|
B:--1--1--1--3-----1--------1--1--1--0-----0--1-----|
G::-2--2--2--4-----2--------2--2--2-----------2-----|
D:--2--2--2-----------------------------------------|
A:--------------------------------------------------|
E:--------------------------------------------------|
a x b x c x d x


56/58/60/62
Am E+ E7 Am (3)
e:--------------------0-----0-----------------------||
B:--1--1--1--3-----3--1-----0--3--------1-----------||
G:--2--2--2--4-----4--2-----1--1--------2----------:||
D:--2--2--2-----------------2--2--------2-----------||
A:--------------------------------------------------||
E:--------------------------------------------------||
a x b x c x d x


63
G Gs G G7 Cs C (1)
e:-----------------------1--1--0--------0-----------||
B:--0-----0--1--------3--3--1--1--------1-----------||
G::----0-----0-----0--0--0--0--0-----0--0----------:||
D:--0-----0-----0-----------------2-----------------||
A:--------------------------------------------------||
E:--------------------------------------------------||
a x b x c x d x


65
A Dms Dm Dm (1)
e:-----------------0-h3-----3--1--------0-----------||
B:--2--2--2--3-----2--------3--3-----------3--------||
G::-2--2--2--2-----2--------2--2--------2--2-------:||
D:--2--2--2--2-----2--------3--3--------3--3--------||
A:--------------------------------------------------||
E:--------------------------------------------------||
a x b x c x d x


67
Fd E E7 Fd E E7
e:--1--0--------------------1--0--------------------||
B:--0--0-----3-----0--------0--0-----3-----0--------||
G::-1--1-----1-----1--------1--1-----1-----1-------:||
D:--3--2-----0-----0--------3--2-----0-----0--------||
A:-----------------2-----------------------2--------||
E:--------------------------------------------------||
a x b x c x d x


69/77 (March Tempo - 120 bpm)
A A7 Ds Dm Dm7
e:--------------------0-----|--3-----1-----1-----------|
B:--2-----2-----2--3-----2--|-----3-----3-----3-----3--|
G::----2-----2--------0-----|--2-----2-----2-----2-----|
D:--2-----2-----2-----------|--------------------------|
A:--------------------------|--------------------------|
E:--------------------------|--------------------------|
a x b x c x d x a x b x c x d x


71/79 72/80
G G7 G#d E7 G#d
e:--------------------------|--1-----0-----------------|
B:--0-----0-----0--1--3-----|--0-----3-----3-----0-----|
G:-----0-----0-----2-----0--|--1-----0-----0-----1-----|
D:--0-----0-----0-----3-----|--0-----2-----2-----0-----|
A:--------------------------|--------------------------|
E:--------------------------|--------------------------|
a x b x c x d x a x b x c x d x


73/81 74/82
Am Gm Bb Gm7
e:--------------------0--3--|--3-----1-----------------|
B:--1--------------1--1--1--|--3-----3-----3-----------|
G:--2-----------2--2--2--2--|--3-----3-----3-----2--1--|
D:--2-----------2-----------|--5-----3-----3-----------|
A:--------------------------|--------------5-----------|
E:--------------------------|--------------------------|
a x b x c x d x a x b x c x d x


75_________________________76________________________
[1. E E7 E E7
e:--0-----------1--0-----0--|--1-----0-----------------||
B:--0-----------0-----3-----|--0-----0-----3-----0-----||
G:--1-----------1-----1-----|--1-----1-----1-----1----:||
D:--2-----------------------|--2-----2-----0-----0-----||
A:--------------------------|--------------------------||
E:--------------------------|--------------------------||
a x b x c x d x a x b x c x d c


83________________________ 84 (Faster - 135 bpm) 86
[2. E NC NC NC
e:--0-----------0-----0-----||--------------|--------------|--------------|
B:--0-----------0-----0-----||--------------|--------------|--0.........--|
G:--1-----------1-----1-----||--2.........--|--3.........--|--------------|
D:--2-----------2-----2-----||--------------|--------------|--------------|
A:--------------------------||--0--0--0--0--|--0--0--0--0--|--0--0--0--0--|
E:--------------------------||--------------|--------------|--------------|
a x b x c x d x a b c d a b c d a b c d


87 88 89 90 91
NC NC NC NC NC
e:--------------|--------------|--------------|--------------|--------------|
B:--1.........--|--2.........--|--3.........--|--4.....5...--|--6.....7...--|
G:--------------|--------------|--------------|--------------|--------------|
D:--------------|--------------|--0.........--|--1.....2...--|--3.....4...--|
A:--0--0--0--0--|--0--0--0--0--|--0--0--0--0--|--0--0--0--0--|--0--0--0--0--|
E:--------------|--------------|--------------|--------------|--------------|
a b c d a b c d a b c d a b c d a b c d


92 93/95/97/99 94/96/98/100
NC A BbMaj7
e:--------------||--5-----------------------|--5------5--------5-------||
B:--8.....9...--||--5-----------------------|--6-----6--6-----6--6-----||
G:--------------||:-6-----------------------|--7---7-----7--7-----7---:||
D:--5.....6...--||--------------------------|--8--8--------8--------8--||
A:--0--0--0--0--||--0-----0-----0-----0-----|--------------------------||
E:--------------||--------------------------|--6-[thumb]---------------||
a b c d a x b x c x d x a x b x c x d x


101/105 (Segue into "Love
A Lies Bleeding")
e:--------------------------|
B:--------------------------|
G::-2-----2--2--2--0--------|
D:--2-----2--2--2--0--2-----|
A:--0-----0--0--0-----0-----|
E:--------------------------|
a x b x c x d x


102/106
C
e:--------------------------------------------------|
B:--------------------------------------------------|
G:--0-----------0-----0-----------------0-h2-p0-----|
D:--2-----------2-----2-----------2--------------2--|
A:--3-----------3-----3-----3-----------------------|
E:--------------------------------------------------|
a x b x c x d x


103/107
G F G (1)
e:--------------------------|-----1-----1-----1--3-----||
B:--------------------------|-----1-----1-----1--3-----||
G:--0-----0--0-----0--0-----|-----2-----2-----2--4----:||
D:--0-----0--0-----0--0-----|-----3-----3-----3--5-----||
A:--2-----2--2-----2--2-----|-----3-----3-----3--5-----||
E:--3-----3--3-----3--3-----|--1-----------------------||
a x b x c x d x a x b x c x d x

The
:A A
roses in the win- dow box have tilted
wonder if those changes have left a

E E
to one side...................
scar on you...................

A/C# D
Everything about this house was born to
Like all the burning hoops of fire that you and

Bm B
grow and die And if it does-
I passed through You're a blue-

A F#m
n't seem a year ago to this very day
bird on a telephone line and I hope you're happy

Bm D
........ You said I'm
now Well, if the

A E
sorry, honey, if I don't change the pace, I
wind of change comes down, down your way girl, you'll

D D
can't face another day............
make it back somehow...............

F#m Bm
And love lie bleeding in my hand.......

E Bm7 E Bm7 E
Oh it

F#m Bm
kills me to think of you with another man

E Bm7 E Bm7 E
I was

A Bm7
playing rock & roll & you were just a fan, but my gui-

A/C# D
tar couldn't hold you so I split the band

Am Am/D Am F#m
Love lies

E A :
bleeding in my hand...........
---------------

[play beginning riff 2X between verses]
[after 2nd verse, guitar solo & outro on same chord pattern]

[end]

Тональность:

Это должно быть в ТОП-листе! - Топ-лист композиций



Назад
Рекомендуем посмотреть другие песни исполнителя «Elton John»:

  • Комменты Fb ()
  • Комменты ВК



Добавить в Избранное Браузера
Сохранить здесь Очистить


x

0


+
-

+
-

-

Авторизация





Зарегистрироваться

M

Дата и время

  • 12:58:22
     

Социальные ссылки


Наши приложения

  • Muzbank App Play Market
  • Muzbank Amazon App