MUZBANK


МУЗЫКАЛЬНО-ИНФОРМАЦИОННЫЙ БАНК





EElton John • Love Song (аккорды и текст - chords & lyrics)


509

Print

Видео «Love Song (Elton John)»

Видео клипы к песне подбираются автоматически сайтом youtube. Возможны некоторые несоответствия клипов песне.

↑ Спрятать рекламу ↑





Verse
2x
E||---2---------------------|--0----------------------||
B||-----------------0-------|----------------0--------||
G||*----------0-------------|----------0-------------*||
D||*-------0-----------0----|-------0-----------0----*||
A||-------------------------|-------------------------||
E||---0----------0----------|--0----------0-----------||

2x
||---0---------------------|--0----------------------||
||-----------------2-------|----------------3--------||
||*----------0-------------|----------0-------------*||
||*-------2-----------2----|-------2-----------2----*||
||---0----------0----------|--0----------0-----------||
||-------------------------|-------------------------||

Chorus
2x 2x
||---2----------------------||---0----------------------||
||-----------------0--------||-----------------2--------||
||*----------0-------------*||*----------0-------------*||
||*-------0-----------0----*||*-------2-----------2----*||
||--------------------------||---0----------0-----------||
||---0----------0-----------||--------------------------||


The chords are Gm7, C7, and C6.

Gm7
The words I have to say
C7
May well be simple but they're true,
Gm7
Until you give your love,
C7
There's nothing more that we can do.
Gm7 C7
Love is the opening door
Gm7 C7 C6 C7 C6
Love is what we came here for
Gm7 C7 C6 C7 C6
No one could offer you more
Gm7 C7
Do you know what I mean?
Gm7 C7
Have your eyes really seen?

Gm7
You say it's very hard
C7
To leave behind the life we knew,
Gm7
But there's no other way
C7
And now it's really up to you
Gm7 C7
Love is the key we must turn.
Gm7 C7 C6 C7 C6
Truth us the flame we must burn.
Gm7 C7 C6 C7 C6
Freedom the lesson we must learn.
Gm7 C7
Do you know what I mean?
Gm7 C7
Have your eyes really seen?

Тональность:

Это должно быть в ТОП-листе! - Топ-лист композиций



Назад
Рекомендуем посмотреть другие песни исполнителя «Elton John»:

  • Комменты Fb ()
  • Комменты ВК



Добавить в Избранное Браузера
Сохранить здесь Очистить


x

0


+
-

+
-

-

Авторизация





Зарегистрироваться

M

Дата и время

  • 21:58:24
     

Социальные ссылки


Наши приложения

  • Muzbank App Play Market
  • Muzbank Amazon App