MUZBANK


МУЗЫКАЛЬНО-ИНФОРМАЦИОННЫЙ БАНК





EEmigrate • Face Down (аккорды и текст - chords & lyrics)


606

Print

Видео «Face Down (Emigrate)»

Видео клипы к песне подбираются автоматически сайтом youtube. Возможны некоторые несоответствия клипов песне.

↑ Спрятать рекламу ↑





Relive me
The weight is glued
Deceive me
Forget about the truth
Don't read me
I'm so transparent
Don't feed me now

Face down
To guilty to be happy
Right inside
To guilty to be happy
Face Down
To guilty to be happy
Right inside
To guilty to be happy

I lust for
Thrill and danger
Don't trust me
I've said it all before
Belive me
I want forgiveness
You see me
Stripped and naked
I live for
A taste of violence
I'm dying
To get another breath

Face down
To guilty to be happy
Right inside
To guilty to be happy
Face Down
To guilty to be happy
Right inside
To guilty to be happy

Face down
To guilty to be happy
Right inside
To guilty to be happy
Face Down
To guilty to be happy
Right inside
To guilty to be happy (happy)


  /The guitar is tuned drop C/

*** Guitar Tab:

[Intro:]
D|-------------------------------------------------|
A|-------------------------------------------------|
F|-------------------------------------------------|
C|-------------------------------------------------|
G|-------------------------------------------------|
C|-0--3.1*--0--3.1*--0--3.1*--0--3.1*--5*-5*-5*-5*-|



[Verse:]
D|--------------------------------------------------------------------|
A|--------------------------------------------------------------------|
F|--------------------------------------------------------------------|
C|-4h5p4-0--------------------------------8-8-8-8---10-10-10-10-12\\--|
G|-4h5p4-0---5-5-5-5---5-5-5-5---5-5-5-5--8-8-8-8---10-10-10-10-12\\--|
C|-4h5p4-0---0-0-0-0---0-0-0-0---0-0-0-0--8-8-8-8---10-10-10-10-12\\--|


D|-----------------------------------------------------------|
A|-----------------------------------------------------------|
F|-----------------------------------------------------------|
C|-4h5p4-0-------------------------------------8-------------|
G|-4h5p4-0---5-5-5-5---5-5-5-5---5-5-5-5---5-5-8-------------|
C|-4h5p4-0---0-0-0-0---0-0-0-0---0-0-0-0---0-0-8-------------|

D|--------------------------------------------------------------------|
A|--------------------------------------------------------------------|
F|--------------------------------------------------------------------|
C|-4h5p4-0--------------------------------8-8-8-8---10-10-10-10-12\\--|
G|-4h5p4-0---5-5-5-5---5-5-5-5---5-5-5-5--8-8-8-8---10-10-10-10-12\\--|
C|-4h5p4-0---0-0-0-0---0-0-0-0---0-0-0-0--8-8-8-8---10-10-10-10-12\\--|


D|-------------------------------------------|
A|-------------------------------------------|
F|-------------------------------------------|
C|-4h5p4-0-----------------------------------|
G|-4h5p4-0---5-5-5-5---5-5-5-5---5-5-5-5---5-|
C|-4h5p4-0---0-0-0-0---0-0-0-0---0-0-0-0---0-|


[Verse Riff:]
D|-----------------------------------------------------------------|
A|-----------------------------------------------------------------|
F|*----------------------------------------------------------------|
C|*-4h5-4h5/7----7---7----7---7----7---7----8---8----10---10/12\\--|
G|-----------------5--------5--------5-----------------------------|
C|-------------0--------0--------0--------0---0----0----0----------|

D|-----------------------------------------------|
A|-----------------------------------------------|
F|---------------------------------------------*-|
C|-4h5-4h5/7----7---7----7---7----7---7----7/8-*-|
G|----------------5--------5--------5------------|
C|------------0--------0--------0--------0-------|

[Chorus:]
D|-----------------------|-----------------------|-----------------------|--------------------|
A|-----------------------|-----------------------|-----------------------|--------------------|
F|-----------------------|-----------------------|-----------------------|--------------------|
C|-0-2-3-3-3--8-8-7-7-10-|-0-2-3-3-3--8-8-7-7-10-|-0-2-3-3-3--8-8-7-7-10-|-0-2-3-3-3--8-8-7-7-|
G|-0-2-3-3-3--8-8-7-7-10-|-0-2-3-3-3--8-8-7-7-10-|-0-2-3-3-3--8-8-7-7-10-|-0-2-3-3-3--8-8-7-7-|
C|-0-2-3-3-3--8-8-7-7-10-|-0-2-3-3-3--8-8-7-7-10-|-0-2-3-3-3--8-8-7-7-10-|-0-2-3-3-3--8-8-7-7-|


[Verse 2] with changes/fills in end:
D|-----------------------------------------------------------------|
A|-----------------------------------------------------------------|
F|-----------------------------------------------------------------|
C|--4h5-4h5/7----7---7----7---7----7---7----8---8----10---10/12\\--|
G|-----------------5--------5--------5-----------------------------|
C|-------------0--------0--------0--------0---0----0----0----------|

D|----------------------------------------------|
A|----------------------------------------------|
F|----------------------------------------------|
C|-4h5-4h5/7----7---7----7---7----7---7----7/8--|
G|----------------5--------5--------5-----------|
C|------------0--------0--------0--------0------|

D|-----------------------------------------------------------------|
A|-----------------------------------------------------------------|
F|-----------------------------------------------------------------|
C|--4h5-4h5/7----7---7----7---7----7---7----8---8----10---10/12\\--|
G|-----------------5--------5--------5-----------------------------|
C|-------------0--------0--------0--------0---0----0----0----------|

D|----------------------------------------------|
A|----------------------------------------------|
F|----------------------------------------------|
C|-4h5-4h5/7----7---7----7---7----7---7----7/8--|
G|----------------5--------5--------5-----------|
C|------------0--------0--------0--------0------|

D|-----------------------------------------------------------------|
A|-----------------------------------------------------------------|
F|-------------------5--------5--------5---------------------------|
C|--4h5-4h5/7----7--------7--------7--------8---8----10---10/12\\--|
G|-----------------5--------5--------5-----------------------------|
C|-------------0--------0--------0--------0---0----0----0----------|

D|----------------------------------------------|
A|----------------------------------------------|
F|------------------5--------5--------5---------|
C|-4h5-4h5/7----7--------7--------7--------7/8--|
G|----------------5--------5--------5-----------|
C|------------0--------0--------0--------0------|

[Bridge:]
D|--------------------------------------------------------|
A|--------------------------------------------------------|
F|--------------------------------------------------------|
C|--------------------------------------------------------|
G|-----------------------------------------------~~----|
C|-0-3--0-3--0-3--0-3-----0-3--0-3--0-3--0-3-5-0----------|

D|--------------------------------------------------------|
A|--------------------------------------------------------|
F|--------------------------------------------------------|
C|--------------------------------------------------------|
G|-----------------------------------------------~~----|
C|--0-3--0-3--0-3--0-3----0-3--0-3--0-3--0-3-5-0----------|

[Solo] 3 guitars: 1 gtr rythme and 2 and 3 guitar - Harmonized solo:


Guitar 1: Chorus (rythm)

D|-------------------------|
A|-------------------------|
F|*-----------------------*|
C|*-0-2-3-3-3--8-8-7-7-10-*|
G|--0-2-3-3-3--8-8-7-7-10--|
C|--0-2-3-3-3--8-8-7-7-10--|


Guitar 2:

D|----------------------------------------------------------------------------------------------|
A|----------------------------------------------------------------------------------------------|
F|*-10~--10~--10~--10~--10~--7~--7~--9~--9~--12~--10~--10~--10~--10~--10~--7~--7~--5~--5~--12~-*|
C|*--------------------------------------------------------------------------------------------*|
G|----------------------------------------------------------------------------------------------|
C|----------------------------------------------------------------------------------------------|


And guitar 3 kicks in 2. time:
D|------------------------------------------------------------------------------------------------|
A|-10~--10~--10~--10~--10~--8~--8~--10~--10~--13~--10~--10~--10~--10~--10~--8~--8~--5~--5~-/15b16-|
F|------------------------------------------------------------------------------------------------|
C|------------------------------------------------------------------------------------------------|
G|------------------------------------------------------------------------------------------------|
C|------------------------------------------------------------------------------------------------|

Тональность:

Это должно быть в ТОП-листе! - Топ-лист композиций



Назад
Рекомендуем посмотреть другие песни исполнителя «Emigrate»:

  • Комменты Fb ()
  • Комменты ВК



Добавить в Избранное Браузера
Сохранить здесь Очистить


x

0


+
-

+
-

-

Авторизация





Зарегистрироваться

M

Дата и время

  • 22:18:25
     

Социальные ссылки


Наши приложения

  • Muzbank App Play Market
  • Muzbank Amazon App