MUZBANK


МУЗЫКАЛЬНО-ИНФОРМАЦИОННЫЙ БАНК





EEminem • Dre (аккорды и текст - chords & lyrics)


492

Print

Видео «Dre (Eminem)»

Видео клипы к песне подбираются автоматически сайтом youtube. Возможны некоторые несоответствия клипов песне.

↑ Спрятать рекламу ↑





e|--------------------------------------------------||
b|--------------------------------------------------||
g|--------------------------------------------------||
d|--5-5-5-5-5-5-5-5-5-5-5-5-5-5-1-1-1-1-0-0-0-0-----||
a|--------------------------------------------------||
E|--------------------------------------------------||

e|--------------------------------------------------||
b|--------------------------------------------------||
g|--------------------------------------------------||
d|--5-5-5-5-5-5-5-5-5-5-5-5-5-5-1-1-1-1-0-0-0-0-----||
a|--------------------------------------------------||
E|--------------------------------------------------||

E-------3--5--6---------3--5--6------------------------------------------------
B-----3---------------3--------------------------------------------------------
G---3---------------3----------------------------------------------------------
D-5---------------1------------------------------------------------------------
A------------------------------------------------------------------------------
E------------------------------------------------------------------------------

E-------3--5--6---------3--5--6------------------------------------------------
B-----3---------------3--------------------------------------------------------
G---3---------------3----------------------------------------------------------
D-5---------------1------------------------------------------------------------
A------------------------------------------------------------------------------
E------------------------------------------------------------------------------

Тональность:

Это должно быть в ТОП-листе! - Топ-лист композиций



Назад
Рекомендуем посмотреть другие песни исполнителя «Eminem»:

  • Комменты Fb ()
  • Комменты ВК



Добавить в Избранное Браузера
Сохранить здесь Очистить


x

0


+
-

+
-

-

Авторизация





Зарегистрироваться

M

Дата и время

  • 22:10:59
     

Социальные ссылки


Наши приложения

  • Muzbank App Play Market
  • Muzbank Amazon App