MUZBANK


МУЗЫКАЛЬНО-ИНФОРМАЦИОННЫЙ БАНК





EEminem • Kill You (аккорды и текст - chords & lyrics)


599

Print

Видео «Kill You (Eminem)»

Видео клипы к песне подбираются автоматически сайтом youtube. Возможны некоторые несоответствия клипов песне.

↑ Спрятать рекламу ↑







---7-------7-----6------6------6----7-----------------------------------------
----7-------7-----7------7------7----7----------------------------------------
-----8----8--8-----6------6---6--6----8---------------------------------------
------9--9----9-----8------8-8----8----9--------------------------------------
------------------------------------------------------------------------------
------------------------------------------------------------------------------
"Cuz you don't wanna fuck wit Shady(Cuz why?) Cuz Shady will fucking kill

------------------------------------------------------------------------------
------------------------------------------------------------------------------
------------------------------------------------------------------------------
------------------------------------------------------------------------------
------------------------------------------------------------------------------
------------------------------------------------------------------------------

Тональность:

Это должно быть в ТОП-листе! - Топ-лист композиций



Назад
Рекомендуем посмотреть другие песни исполнителя «Eminem»:

  • Комменты Fb ()
  • Комменты ВК



Добавить в Избранное Браузера
Сохранить здесь Очистить


x

0


+
-

+
-

-

Авторизация





Зарегистрироваться

M

Дата и время

  • 23:43:56
     

Социальные ссылки


Наши приложения

  • Muzbank App Play Market
  • Muzbank Amazon App