MUZBANK


МУЗЫКАЛЬНО-ИНФОРМАЦИОННЫЙ БАНК





EEminem • My Closet (аккорды и текст - chords & lyrics)


480

Print

Видео «My Closet (Eminem)»

Видео клипы к песне подбираются автоматически сайтом youtube. Возможны некоторые несоответствия клипов песне.

↑ Спрятать рекламу ↑





---------------------------------------------------------------------------
---------------------------------------------------------------------------
--------------2-------------------2---------------------------------------
------------2---2---------------2--2----------------3-2------------------
-----0-0-3-------3-2----0-0-3-------3-2------0-3------3----------------
--------------------------------------------1-1-------------0-------------

------------------------------------------------------------------------------
------------------------------------------------------------------------------
----1-2-4-1-2-(optional bend at the last two)--------------------------------
------------------------------------------------------------------------------
------------------------------------------------------------------------------
------------------------------------------------------------------------------

Тональность:

Это должно быть в ТОП-листе! - Топ-лист композиций



Назад
Рекомендуем посмотреть другие песни исполнителя «Eminem»:

  • Комменты Fb ()
  • Комменты ВК



Добавить в Избранное Браузера
Сохранить здесь Очистить


x

0


+
-

+
-

-

Авторизация





Зарегистрироваться

M

Дата и время

  • 09:33:16
     

Социальные ссылки


Наши приложения

  • Muzbank App Play Market
  • Muzbank Amazon App