MUZBANK


МУЗЫКАЛЬНО-ИНФОРМАЦИОННЫЙ БАНК





EEminem • Slim Shady (аккорды и текст - chords & lyrics)


708

Print

Видео «Slim Shady (Eminem)»

Видео клипы к песне подбираются автоматически сайтом youtube. Возможны некоторые несоответствия клипов песне.

↑ Спрятать рекламу ↑





E||------11----------------------|--------------------------------|
B||--13--------------13----------|--------------------------------|
G||----------12--13----------13--|--12------13--12-13-12--11--12--|
D||------------------------------|--------------------------------|
A||------------------------------|--------------------------------|
E||------------------------------|--------------------------------|



------11----------------------|--------------------------------|
--13--------------13----------|--------------------------------|
----------12--13----------13--|--12------13--12-13-12--11--12--|
------------------------------|--------------------------------|
------------------------------|--------------------------------|
------------------------------|--------------------------------|



------11----------------------|--------------------------------|
--13--------------13----------|--------------------------------|
----------12--13----------13--|--12------13--12-13-12--11--12--|
------------------------------|--------------------------------|
------------------------------|--------------------------------|
------------------------------|--------------------------------|



------11----------------------|--------------------------------|
--13--------------13----------|--------------------------------|
----------12--13----------13--|--12------13--12-13-12--11--12--|
------------------------------|--------------------------------|
------------------------------|--------------------------------|
------------------------------|--------------------------------|



------11----------------------|--------------------------------|
--13--------------13----------|--------------------------------|
----------12--13----------13--|--12------13--12-13-12--11--12--|
------------------------------|--------------------------------|
------------------------------|--------------------------------|
------------------------------|--------------------------------|



------11----------------------|--------------------------------|
--13--------------13----------|--------------------------------|
----------12--13----------13--|--12------13--12-13-12--11--12--|
------------------------------|--------------------------------|
------------------------------|--------------------------------|
------------------------------|--------------------------------|



------11----------------------|--------------------------------|
--13--------------13----------|--------------------------------|
----------12--13----------13--|--12------13--12-13-12--11--12--|
------------------------------|--------------------------------|
------------------------------|--------------------------------|
------------------------------|--------------------------------|



------11----------------------|--------------------------------|
--13--------------13----------|--------------------------------|
----------12--13----------13--|--12------13--12-13-12--11--12--|
------------------------------|--------------------------------|
------------------------------|--------------------------------|
------------------------------|--------------------------------|



------11----------------------|--------------------------------|
--13--------------13----------|--------------------------------|
----------12--13----------13--|--12------13--12-13-12--11--12--|
------------------------------|--------------------------------|
------------------------------|--------------------------------|
------------------------------|--------------------------------|



------11----------------------|--------------------------------|
--13--------------13----------|--------------------------------|
----------12--13----------13--|--12------13--12-13-12--11--12--|
------------------------------|--------------------------------|
------------------------------|--------------------------------|
------------------------------|--------------------------------|



------11----------------------|--------------------------------|
--13--------------13----------|--------------------------------|
----------12--13----------13--|--12------13--12-13-12--11--12--|
------------------------------|--------------------------------|
------------------------------|--------------------------------|
------------------------------|--------------------------------|



------11----------------------|--------------------------------|
--13--------------13----------|--------------------------------|
----------12--13----------13--|--12------13--12-13-12--11--12--|
------------------------------|--------------------------------|
------------------------------|--------------------------------|
------------------------------|--------------------------------|



------11----------------------|--------------------------------|
--13--------------13----------|--------------------------------|
----------12--13----------13--|--12------13--12-13-12--11--12--|
------------------------------|--------------------------------|
------------------------------|--------------------------------|
------------------------------|--------------------------------|



------11----------------------|--------------------------------|
--13--------------13----------|--------------------------------|
----------12--13----------13--|--12------13--12-13-12--11--12--|
------------------------------|--------------------------------|
------------------------------|--------------------------------|
------------------------------|--------------------------------|



------11----------------------|--------------------------------|
--13--------------13----------|--------------------------------|
----------12--13----------13--|--12------13--12-13-12--11--12--|
------------------------------|--------------------------------|
------------------------------|--------------------------------|
------------------------------|--------------------------------|



------11----------------------|--------------------------------|
--13--------------13----------|--------------------------------|
----------12--13----------13--|--12------13--12-13-12--11--12--|
------------------------------|--------------------------------|
------------------------------|--------------------------------|
------------------------------|--------------------------------|



------11----------------------|--------------------------------|
--13--------------13----------|--------------------------------|
----------12--13----------13--|--12------13--12-13-12--11--12--|
------------------------------|--------------------------------|
------------------------------|--------------------------------|
------------------------------|--------------------------------|



------11----------------------|--------------------------------|
--13--------------13----------|--------------------------------|
----------12--13----------13--|--12------13--12-13-12--11--12--|
------------------------------|--------------------------------|
------------------------------|--------------------------------|
------------------------------|--------------------------------|



------11----------------------|--------------------------------|
--13--------------13----------|--------------------------------|
----------12--13----------13--|--12------13--12-13-12--11--12--|
------------------------------|--------------------------------|
------------------------------|--------------------------------|
------------------------------|--------------------------------|



------11----------------------|--------------------------------|
--13--------------13----------|--------------------------------|
----------12--13----------13--|--12------13--12-13-12--11--12--|
------------------------------|--------------------------------|
------------------------------|--------------------------------|
------------------------------|--------------------------------|



------11----------------------|--------------------------------|
--13--------------13----------|--------------------------------|
----------12--13----------13--|--12------13--12-13-12--11--12--|
------------------------------|--------------------------------|
------------------------------|--------------------------------|
------------------------------|--------------------------------|



------11----------------------|--------------------------------|
--13--------------13----------|--------------------------------|
----------12--13----------13--|--12------13--12-13-12--11--12--|
------------------------------|--------------------------------|
------------------------------|--------------------------------|
------------------------------|--------------------------------|



------11----------------------|--------------------------------|
--13--------------13----------|--------------------------------|
----------12--13----------13--|--12------13--12-13-12--11--12--|
------------------------------|--------------------------------|
------------------------------|--------------------------------|
------------------------------|--------------------------------|



------11----------------------|--------------------------------|
--13--------------13----------|--------------------------------|
----------12--13----------13--|--12------13--12-13-12--11--12--|
------------------------------|--------------------------------|
------------------------------|--------------------------------|
------------------------------|--------------------------------|



------11----------------------|--------------------------------|
--13--------------13----------|--------------------------------|
----------12--13----------13--|--12------13--12-13-12--11--12--|
------------------------------|--------------------------------|
------------------------------|--------------------------------|
------------------------------|--------------------------------|



------11----------------------|--------------------------------|
--13--------------13----------|--------------------------------|
----------12--13----------13--|--12------13--12-13-12--11--12--|
------------------------------|--------------------------------|
------------------------------|--------------------------------|
------------------------------|--------------------------------|



------11----------------------|--------------------------------|
--13--------------13----------|--------------------------------|
----------12--13----------13--|--12------13--12-13-12--11--12--|
------------------------------|--------------------------------|
------------------------------|--------------------------------|
------------------------------|--------------------------------|



------11----------------------|--------------------------------|
--13--------------13----------|--------------------------------|
----------12--13----------13--|--12------13--12-13-12--11--12--|
------------------------------|--------------------------------|
------------------------------|--------------------------------|
------------------------------|--------------------------------|



------11----------------------|--------------------------------|
--13--------------13----------|--------------------------------|
----------12--13----------13--|--12------13--12-13-12--11--12--|
------------------------------|--------------------------------|
------------------------------|--------------------------------|
------------------------------|--------------------------------|



------11----------------------|--------------------------------|
--13--------------13----------|--------------------------------|
----------12--13----------13--|--12------13--12-13-12--11--12--|
------------------------------|--------------------------------|
------------------------------|--------------------------------|
------------------------------|--------------------------------|



------11----------------------|--------------------------------|
--13--------------13----------|--------------------------------|
----------12--13----------13--|--12------13--12-13-12--11--12--|
------------------------------|--------------------------------|
------------------------------|--------------------------------|
------------------------------|--------------------------------|



------11----------------------|--------------------------------|
--13--------------13----------|--------------------------------|
----------12--13----------13--|--12------13--12-13-12--11--12--|
------------------------------|--------------------------------|
------------------------------|--------------------------------|
------------------------------|--------------------------------|



------11----------------------|--------------------------------|
--13--------------13----------|--------------------------------|
----------12--13----------13--|--12------13--12-13-12--11--12--|
------------------------------|--------------------------------|
------------------------------|--------------------------------|
------------------------------|--------------------------------|



------11----------------------|--------------------------------|
--13--------------13----------|--------------------------------|
----------12--13----------13--|--12------13--12-13-12--11--12--|
------------------------------|--------------------------------|
------------------------------|--------------------------------|
------------------------------|--------------------------------|



------11----------------------|--------------------------------|
--13--------------13----------|--------------------------------|
----------12--13----------13--|--12------13--12-13-12--11--12--|
------------------------------|--------------------------------|
------------------------------|--------------------------------|
------------------------------|--------------------------------|



------11----------------------|--------------------------------|
--13--------------13----------|--------------------------------|
----------12--13----------13--|--12------13--12-13-12--11--12--|
------------------------------|--------------------------------|
------------------------------|--------------------------------|
------------------------------|--------------------------------|



------11----------------------|--------------------------------|
--13--------------13----------|--------------------------------|
----------12--13----------13--|--12------13--12-13-12--11--12--|
------------------------------|--------------------------------|
------------------------------|--------------------------------|
------------------------------|--------------------------------|



------11----------------------|--------------------------------|
--13--------------13----------|--------------------------------|
----------12--13----------13--|--12------13--12-13-12--11--12--|
------------------------------|--------------------------------|
------------------------------|--------------------------------|
------------------------------|--------------------------------|



------11----------------------|--------------------------------|
--13--------------13----------|--------------------------------|
----------12--13----------13--|--12------13--12-13-12--11--12--|
------------------------------|--------------------------------|
------------------------------|--------------------------------|
------------------------------|--------------------------------|



------11----------------------|--------------------------------|
--13--------------13----------|--------------------------------|
----------12--13----------13--|--12------13--12-13-12--11--12--|
------------------------------|--------------------------------|
------------------------------|--------------------------------|
------------------------------|--------------------------------|



------11----------------------|--------------------------------|
--13--------------13----------|--------------------------------|
----------12--13----------13--|--12------13--12-13-12--11--12--|
------------------------------|--------------------------------|
------------------------------|--------------------------------|
------------------------------|--------------------------------|



------11----------------------|--------------------------------|
--13--------------13----------|--------------------------------|
----------12--13----------13--|--12------13--12-13-12--11--12--|
------------------------------|--------------------------------|
------------------------------|--------------------------------|
------------------------------|--------------------------------|



------11----------------------|--------------------------------|
--13--------------13----------|--------------------------------|
----------12--13----------13--|--12------13--12-13-12--11--12--|
------------------------------|--------------------------------|
------------------------------|--------------------------------|
------------------------------|--------------------------------|



------11----------------------|--------------------------------|
--13--------------13----------|--------------------------------|
----------12--13----------13--|--12------13--12-13-12--11--12--|
------------------------------|--------------------------------|
------------------------------|--------------------------------|
------------------------------|--------------------------------|



------11----------------------|--------------------------------|
--13--------------13----------|--------------------------------|
----------12--13----------13--|--12------13--12-13-12--11--12--|
------------------------------|--------------------------------|
------------------------------|--------------------------------|
------------------------------|--------------------------------|



------11----------------------|--------------------------------|
--13--------------13----------|--------------------------------|
----------12--13----------13--|--12------13--12-13-12--11--12--|
------------------------------|--------------------------------|
------------------------------|--------------------------------|
------------------------------|--------------------------------|



------11----------------------|--------------------------------|
--13--------------13----------|--------------------------------|
----------12--13----------13--|--12------13--12-13-12--11--12--|
------------------------------|--------------------------------|
------------------------------|--------------------------------|
------------------------------|--------------------------------|



------11----------------------|--------------------------------|
--13--------------13----------|--------------------------------|
----------12--13----------13--|--12------13--12-13-12--11--12--|
------------------------------|--------------------------------|
------------------------------|--------------------------------|
------------------------------|--------------------------------|



------11----------------------|--------------------------------|
--13--------------13----------|--------------------------------|
----------12--13----------13--|--12------13--12-13-12--11--12--|
------------------------------|--------------------------------|
------------------------------|--------------------------------|
------------------------------|--------------------------------|



------11----------------------|--------------------------------|
--13--------------13----------|--------------------------------|
----------12--13----------13--|--12------13--12-13-12--11--12--|
------------------------------|--------------------------------|
------------------------------|--------------------------------|
------------------------------|--------------------------------|



------11----------------------|--------------------------------|
--13--------------13----------|--------------------------------|
----------12--13----------13--|--12------13--12-13-12--11--12--|
------------------------------|--------------------------------|
------------------------------|--------------------------------|
------------------------------|--------------------------------|



------11----------------------|--------------------------------|
--13--------------13----------|--------------------------------|
----------12--13----------13--|--12------13--12-13-12--11--12--|
------------------------------|--------------------------------|
------------------------------|--------------------------------|
------------------------------|--------------------------------|



------11----------------------|--------------------------------|
--13--------------13----------|--------------------------------|
----------12--13----------13--|--12------13--12-13-12--11--12--|
------------------------------|--------------------------------|
------------------------------|--------------------------------|
------------------------------|--------------------------------|



------11----------------------|--------------------------------|
--13--------------13----------|--------------------------------|
----------12--13----------13--|--12------13--12-13-12--11--12--|
------------------------------|--------------------------------|
------------------------------|--------------------------------|
------------------------------|--------------------------------|



------11----------------------|--------------------------------|
--13--------------13----------|--------------------------------|
----------12--13----------13--|--12------13--12-13-12--11--12--|
------------------------------|--------------------------------|
------------------------------|--------------------------------|
------------------------------|--------------------------------|



------11----------------------|--------------------------------|
--13--------------13----------|--------------------------------|
----------12--13----------13--|--12------13--12-13-12--11--12--|
------------------------------|--------------------------------|
------------------------------|--------------------------------|
------------------------------|--------------------------------|



------11----------------------|--------------------------------|
--13--------------13----------|--------------------------------|
----------12--13----------13--|--12------13--12-13-12--11--12--|
------------------------------|--------------------------------|
------------------------------|--------------------------------|
------------------------------|--------------------------------|



------11----------------------|--------------------------------||
--13--------------13----------|--------------------------------||
----------12--13----------13--|--12------13--12-13-12--11--12--||
------------------------------|--------------------------------||
------------------------------|--------------------------------||
------------------------------|--------------------------------||

Тональность:

Это должно быть в ТОП-листе! - Топ-лист композиций



Назад
Рекомендуем посмотреть другие песни исполнителя «Eminem»:

  • Комменты Fb ()
  • Комменты ВК



Добавить в Избранное Браузера
Сохранить здесь Очистить


x

0


+
-

+
-

-

Авторизация





Зарегистрироваться

M

Дата и время

  • 20:58:46
     

Социальные ссылки


Наши приложения

  • Muzbank App Play Market
  • Muzbank Amazon App