MUZBANK


МУЗЫКАЛЬНО-ИНФОРМАЦИОННЫЙ БАНК





EEminem • Superman (аккорды и текст - chords & lyrics)


1483

Print

Видео «Superman (Eminem)»

Видео клипы к песне подбираются автоматически сайтом youtube. Возможны некоторые несоответствия клипов песне.

↑ Спрятать рекламу ↑






Intro:
E|--------------------------------------------
B|--------------------------------------------
G|--------2---------------0---------0---------
D|-----2--------2-------2--------2----------2-
A|--0--------0-------3--------2----------2----
E|------------------------------------0-------

E|--------------------------------------------
B|-----------------------------8------8----12-
G|---------2----------------9-------9------9--
D|------2---------2-----10--------9--------9--
A|---0---------0------------------------------
E|--------------------------------------------


Chorus: First Eminem sings the chorus and this part is played
E|--------------------------------------------
B|---5--7--8--10-12—10--8--7—-5---------------
G|--------------------------------------------
D|--------------------------------------------
A|--------------------------------------------
E|--------------------------------------------

E|----------------7------10--8--7--------------
B|---5--7--8--10-----10------------------------
G|---------------------------------------------
D|---------------------------------------------
A|---------------------------------------------
E|---------------------------------------------

E|--------------------------------------------
B|---5--7--8--10-12—10--8--7—-5---------------
G|--------------------------------------------
D|--------------------------------------------
A|--------------------------------------------
E|--------------------------------------------

E|----------------7------10--8--7--------------
B|---5--7--8--10-----10------------------------
G|---------------------------------------------
D|---------------------------------------------
A|---------------------------------------------
E|---------------------------------------------

Verse: Keep on repeating this until he goes to the chorus
E|--------------------------------------------
B|--------------------------------------------
G|--------2---------------0---------0---------
D|-----2--------2-------2--------2----------2-
A|--0--------0-------3--------2----------2----
E|------------------------------------0-------

E|--------------------------------------------
B|-----------------------------8------8----12-
G|---------2----------------9-------9------9--
D|------2---------2-----10--------9--------9--
A|---0---------0------------------------------
E|--------------------------------------------

Outro: Repeat this part, which is the chorus, until the song ends
E|--------------------------------------------
B|---5--7--8--10-12—10--8--7—-5---------------
G|--------------------------------------------
D|--------------------------------------------
A|--------------------------------------------
E|--------------------------------------------

E|----------------7------10--8--7--------------
B|---5--7--8--10-----10------------------------
G|---------------------------------------------
D|---------------------------------------------
A|---------------------------------------------
E|---------------------------------------------

E|--------------------------------------------
B|---5--7--8--10-12—10--8--7—-5---------------
G|--------------------------------------------
D|--------------------------------------------
A|--------------------------------------------
E|--------------------------------------------

E|----------------7------10--8--7--------------
B|---5--7--8--10-----10------------------------
G|---------------------------------------------
D|---------------------------------------------
A|---------------------------------------------
E|---------------------------------------------

_________________________________________________________
Order:

Intro
Chorus
Verse
Chorus
Verse
Chorus
Verse
Chorus
Outro

Тональность:

Это должно быть в ТОП-листе! - Топ-лист композиций



Назад
Рекомендуем посмотреть другие песни исполнителя «Eminem»:

  • Комменты Fb ()
  • Комменты ВК



Добавить в Избранное Браузера
Сохранить здесь Очистить


x

0


+
-

+
-

-

Авторизация





Зарегистрироваться

M

Дата и время

  • 23:51:49
     

Социальные ссылки


Наши приложения

  • Muzbank App Play Market
  • Muzbank Amazon App