MUZBANK



A MOST COMPLETE BANK OF MUSIC INFORMATION

МУЗЫКАЛЬНО-ИНФОРМАЦИОННЫЙ БАНК







    EEminem • Till I Collapse (аккорды и текст - chords & lyrics)


    438

    Print

    Видео «Till I Collapse (Eminem)»

    Видео клипы к песне подбираются автоматически сайтом youtube. Возможны некоторые несоответствия клипов песне.

    ↑ Спрятать рекламу ↑






    Intro/Verse/Chrous:
    |----------------------------------------------------------------|
    |----------------------------------------------------------------|
    |---1-1-1-1---1-2-1----1-1-1-1---1------1-1-1-1---1-2-1---1-1-1--|
    |-----------4------------------4---2------------4----------------|
    |-4------------------4----------------4-----------------4--------|
    |----------------------------------------------------------------|
    
    |----------------------------------------------------------------|
    |----------------------------------------------------------------|
    |-1---1----------------------------------------------------------|
    |---4---2-1------------------------------------------------------|
    |-----------2-2⁄4------------------------------------------------|
    |----------------------------------------------------------------|
    
    
    |----------------------------------------------------------------|
    |----------------------------------------------------------------|
    |---1-1-1-1---1-2-1----1-1-1-1---1------1-1-1-1---1-2-1---1-1-1--|
    |-----------4------------------4---2------------4----------------|
    |-4------------------4----------------4-----------------4--------|
    |----------------------------------------------------------------|
    
    |----------------------------------------------------------------|
    |----------------------------------------------------------------|
    |-1---1----------------------------------------------------------|
    |---4---2-1------------------------------------------------------|
    |-----------2-2⁄4------------------------------------------------|
    |----------------------------------------------------------------|
    
    |----------------------------------------------------------------|
    |----------------------------------------------------------------|
    |---1-1-1-1---1-2-1----1-1-1-1---1------1-1-1-1---1-2-1---1-1-1--|
    |-----------4------------------4---2------------4----------------|
    |-4------------------4----------------4-----------------4--------|
    |----------------------------------------------------------------|
    
    |----------------------------------------------------------------|
    |----------------------------------------------------------------|
    |-1---1----------------------------------------------------------|
    |---4---2-1------------------------------------------------------|
    |-----------2-2⁄4------------------------------------------------|
    |----------------------------------------------------------------|
    

    Тональность:

    Это должно быть в ТОП-листе! - Топ-лист композиций



    Назад
    Рекомендуем посмотреть другие песни исполнителя «Eminem»:

    • Комменты Fb ()
    • Комменты ВК



    Добавить в Избранное Браузера
    Сохранить здесь Очистить


    x

    0


    +
    -

    +
    -

    -

    Авторизация





    Зарегистрироваться

    M

    Дата и время

    • 19:08:07
       

    Социальные ссылки


    Наши приложения

    • Muzbank App Play Market
    • Muzbank Amazon App