MUZBANK


МУЗЫКАЛЬНО-ИНФОРМАЦИОННЫЙ БАНК





EEno Brian • Here Comes The Warm Jets (аккорды и текст - chords & lyrics)


409

Print

Видео «Here Comes The Warm Jets (Eno Brian)»

Видео клипы к песне подбираются автоматически сайтом youtube. Возможны некоторые несоответствия клипов песне.

↑ Спрятать рекламу ↑





E5 D#5 B# A5 F#5 A5
|----------------------------------------------------------------
|----------------------------------------------------------------
|-9-9-9-9-9-6-6-6-4-4-4-4-4-4-4-4--------------------------------
|-9-9-9-9-9-6-6-6-4-4-4-4-4-4-4-4-7-7-7-7-7-4-4-4-7-7-7-7-7-7-7-7
|-7-7-7-7-7-4-4-4-2-2-2-2-2-2-2-2-7-7-7-7-7-4-4-4-7-7-7-7-7-7-7-7
|---------------------------------5-5-5-5-5-2-2-2-5-5-5-5-5-5-5-5

V2
F#5 A5 E5
|----------------------------------------------------
|----------------------------------------------------
|------------------9-9-9-9-9-9-9-9-------------------
|--4-4-4-4-4-7-7-7-9-9-9-9-9-9-9-9-------------------
|--4-4-4-4-4-7-7-7-7-7-7-7-7-7-7-7-------------------
|--2-2-2-2-2-5-5-5-----------------------------------

V3

|---------------------------------------------------
|---------------------------------------------------
|---------------------------------------------------
|--4-4-4-4-4-7-7-7-6-6-6-6-6-6-6-6------------------
|--4-4-4-4-4-7-7-7-6-6-6-6-6-6-6-6------------------
|--2-2-2-2-2-5-5-5-4-4-4-4-4-4-4-4------------------

Lyrics:

V1
Father we make claims on our knees.
V1
Gone in a year, for we?ve nowhere to be.
V2
Nowhere to be
V3
Nowhere to be

Father, stains, they?re all on our knees.
Down on our words and we?ve nothing to be
nothing to be
nothing to be

Further down we?re all on our saints
Paid to appease though we?ve nothing these days
Nothing these days
nothing these days

Father here they?re sprawled in a daze
We?re down on our knees and we?ve nothing to say
Nothing to say
nothing to say

Тональность:

Это должно быть в ТОП-листе! - Топ-лист композиций



Назад
Рекомендуем посмотреть другие песни исполнителя «Eno Brian»:

  • Комменты Fb ()
  • Комменты ВК



Добавить в Избранное Браузера
Сохранить здесь Очистить


x

0


+
-

+
-

-

Авторизация





Зарегистрироваться

M

Дата и время

  • 13:18:36
     

Социальные ссылки


Наши приложения

  • Muzbank App Play Market
  • Muzbank Amazon App