MUZBANK


МУЗЫКАЛЬНО-ИНФОРМАЦИОННЫЙ БАНК





ЭЭпидемия • Королевство из слез (аккорды и текст - chords & lyrics)


598

Print

Видео «Королевство из слез (Эпидемия)»

Видео клипы к песне подбираются автоматически сайтом youtube. Возможны некоторые несоответствия клипов песне.

↑ Спрятать рекламу ↑





 


1) Keyboard Intro:

   Dm     C             F   Dm     C             F     Gm
e|--1----1-0----0--------1-||-5----5-3----3--------5-||--3--||-1-0----------||
B|--3--3---1--1----------1-||-6--6---5--5--------5-6-||--3--||-3-1----------||
G|--2------0-------------2-||-7------5-------5-7---5-||--3--||-2-0----------||
D|--0------2-------2-0-2-3-||-0------5-------------7-||--0--||-0-2--2-0-2-3-||
A|---------3---------------||------------------------||-----||---3----------||
E|-------------------------||------------------------||-----||--------------||
        Fig. 1  a                     Fig. 2           Fig. 3     Fig. 4

Play intro this way: 
Fig1, Fig2, Fig2, Fig3, Fig1, Fig2, Fig3, Fig1, 
Fig2, Fig3, Fig1, Fig2, Fig3, Fig3, Fig1, Fig4.


2) Riff 1 (w/o dist):

    D5          C                 F           Dm    C       F           N.C.
e|-----------------------------||-------------------------|-------------------------||
B|-*-------------------------*-||-------------------------|-------------------------||
G|-------2-2---------0-2-3-2---||-------2-3-2---3-2-0-----|-------2-3-2-3-0-2-------||
D|-----0-----0-----2-----------||-----3-------0-------2---|-----3-------------3-2-0-||
A|-*-0---------0-3-----------*-||---0-------------------3-|---0---------------------||
E|-----------------------------||-1-----------------------|-1-----------------------||



3) Riff 2 (w/dist.):

|------------------------------------------------------------------------------------------||
|------------------------------------------------------------------------------------------||
|-7----7----5----5-----7----7----5----5----------------5----5----3-----3-2-3-0-2-0------(0)||
|-7----7----5----5-5-0-7----7----5----5-5-0-3----3-----5----5----3-----------------2-3-2-0-||
|-5-5555-5553-3333-----5-5555-5553-3333-----3----3-----3-3333-3331-111---------------------||
|-------------------------------------------1-1111-1-1-------------------------------------||
    ...  ...  ...        ...  ...  ...        ...  . .   ...  ...  ...


4) Verse riff (w/dist.):

|-------------------------------------|
|*-----------------------------------*|
|--7-------------------------------7--|
|--7------3----3----5----3----5----7--|
|*-5------3----3----5----3----5----5-*|
|---------1-1111-1113-3331-1113-333---|
           ...  ...  ...  ...  ...

1. Кто увидел огонь, поднимите глаза!
   Кто умеет молчать, пророните хоть слово!
2. Равнодушие к душам умерших сердец,
   Поскользнуться, упасть равносильно здесь смерти.
3. И пороги из льда - .. замерзшей воды
   Нам мешают пройти от подножья к вершине,
4. А, коль разум бессилен, на троне душа,
   И в разбитых сердцах проявляются грезы.

5) Verse riff 2 (w/dist.):

|--------------------------------------------------------------------------------|
|--------------------------------------------------------------------------------|
|-7----7----3----3----5----5----2----2----3----3----5----5----2--2-0-----3-2-0-2-|
|-7----7----3----3----5----5----2----2----3----3----5----5----2------------------|
|-5-5555-5551-1111-1113-3333-3330-0000-0001-1111-1113-3333-3330-0----000---------|
|--------------------------------------------------------------------------------|
    ...  ...  ...  ...  ...  ...  ...  ...  ...  ...  ...  ...  .    ...

1. В этом мире покой, словно с неба гроза,
   Этот мир породила скупая слеза,
   Никогда и нигде не найдете его вы.
2. Этот мир мне на сердце оставил рубец
   Ведь корона здесь смерти - терновый венец,
   Но она так идет новой избранной жертве.
3. Здесь любовь неизменный предвестник беды,
   Но ее не найдешь, не увидишь следы, 
   И запутались мысли все, как в паутине.
4. Говорят, что они здесь не стоят гроша,
   Что Небесные силы здесь судьбы вершат,
   Но тогда почему снова падают слезы?


3) Chorus:

|------------------------------------------------------------------------------------0-1-3br3--|
|--------------------------------------------------------------------------------1-3-----------|
|-7----7----2----2--------------5----5----3----3--------------2----2-------0-2-3---------------|
|-7----7----2----2----3----3----5----5----3----3----5----5----2----2-0-2-3---------------------|
|-5-5555-5550-0000-0003----3----3-3333-3331-1111-1115----5----0-0000---------------------------|
|---------------------1-1111-111--------------------3-3333-333---------------------------------|
    ...  ...  ...  ...  ...  ...  ...  ...  ...  ...  ...  ...  ...
Высоко в Небесах, где нет боли и нет слова "страх",
Там сбываются сны и находится мир наших грез,


|--------------------------------------------------------------|
|--------------------------------------------------------------|
|-7----7----2----2--------------5----5----3----3---------------|
|-7----7----2----2----3----3----5----5----3----3----5----5-----|
|-5-5555-5550-0000-0003----3----3-3333-3331-1111-1115----5-----|
|---------------------1-1111-111--------------------3-3333-333-|
    ...  ...  ...  ...  ...  ...  ...  ...  ...  ...  ...  ...
Только ангел и бес позабыли про силы Небес
И дерутся за власть над королевством из слез.


4) Play Riff 1 & Riff 2.

5) Verse 3, 4.

6) Chorus.

7) Solo.

8) Chorus.

9) Play Riff 1 & Riff 2.

10) Outro (come slower):

|------------------------------------------------------|
|------------------------------------------------------|
|-7----7----5----5----7-7-7-7-5-5-5-5-7-7-7-7-5-5-5-5--|
|-7----7----5----5----7-7-7-7-5-5-5-5-7-7-7-7-5-5-5-5--|
|-5-5555-5553-3333-3335-5-5-5-3-3-3-3-5-5-5-5-3-3-3-3--|
|------------------------------------------------------|
 

Тональность:

Это должно быть в ТОП-листе! - Топ-лист композиций



Назад
Рекомендуем посмотреть другие песни исполнителя «Эпидемия»:

  • Комменты Fb ()
  • Комменты ВК



Добавить в Избранное Браузера
Сохранить здесь Очистить


x

0


+
-

+
-

-

Авторизация





Зарегистрироваться

M

Дата и время

  • 11:58:04
     

Социальные ссылки


Наши приложения

  • Muzbank App Play Market
  • Muzbank Amazon App