MUZBANK


МУЗЫКАЛЬНО-ИНФОРМАЦИОННЫЙ БАНК





ЭЭпидемия • Я молился на тебя (аккорды и текст - chords & lyrics)


1115

Print

Видео «Я молился на тебя (Эпидемия)»

Видео клипы к песне подбираются автоматически сайтом youtube. Возможны некоторые несоответствия клипов песне.

↑ Спрятать рекламу ↑






   куплет 
E----------------------------5----------------
B------3-------2-------3-------3--------------
G--------4-------2-------0-------4------------ (2 раза)
D----4-------2--------------------------------
A--2-------0---------2------------------------
E------------------0-------3------------------

E--------2-------2----------------------------
B------3-------3---------2-3-2h3p2---2h3------
G----2-------2---------2-----------4---------- (1 раз, потом 1-ая фигура)
D--0-----------------2------------------------
A------------------0--------------------------
E----------3----------------------------------
   гармония под проигрыш 
E--0--------------2--------------0------------
B--0--------------3--------------2------------
G--0--------------2--------------2------------ (2 раза, потом 1-ая и 2-ая фигуры)
D--2--------------0--------------2------------
A--2--------------0--------------0------------
E--0-----------------------------0------------
   проигрыш
E-----------------------------------------------------------------
B------------------------------------------------------15-14------
G--9h1112-11---9h11-9---7-6----9h1112-11---9h11-9--------------- 
D-----------------------------------------------------------------
A-----------------------------------------------------------------
E-----------------------------------------------------------------
   
E--3-3-x-x-5-5-x-x-7-7-x-x-5-5---5--5--5-------------------
B--3-3-x-x-5-5-x-x-7-7-x-x-5-5---5--5--5-------------------
G--4-4-x-x-6-6-x-x-7-7-x-x-6-6---6--6--6-------------------
D--5-5-x-x-7-7-x-x-9-9-x-x-7-7---7--7--7-------------------
A--5-5-x-x-7-7-x-x-9-9-x-x-7-7---7--7--7-------------------
E--3-3-x-x-5-5-x-x-7-7-x-x-5-5---5--5--5-------------------

E--3-3-x-x-5-5-x-x-2--2--2--2--2---------------------------
B--3-3-x-x-5-5-x-x-2--2--2--2--2---------------------------
G--4-4-x-x-6-6-x-x-3--3--3--3--3---------------------------
D--5-5-x-x-7-7-x-x-4--4--4--4--4---------------------------
A--5-5-x-x-7-7-x-x-4--4--4--4--4---------------------------
E--3-3-x-x-5-5-x-x-2--2--2--2--2---------------------------
   припев
E----------------------------------------------------------
B----------------------------------------------------------
G-----2----------------------------------------------------
D--2--2--4------2-----4------------------------------------
A--2--0--2-4-5--2--4--2-2-2-2-2-2-2-2-2-2-2-2-2-2-2-2------
E--0-------2-3--0--2---------------------------------------

E----------------------------------------------------------
B----------------------------------------------------------
G-----2----------------------------------------------------
D--2--2------4-----------2--4------------------------------
A--2--0--2-2-2------4-5--2--2-4-5--------------------------
E--0------------2-2-2-3--0----2-3-3-3-3-3-3-3-3-3----------

E---------------------------------------------
B---------------------------------------------
G---------------------------------------------
D--2-----4------------------------------------
A--2--4--2------------------------------------
E--0--2---------------------------------------

Обозначения

h - hammer
p - pull
x - muting


Голос твой затих,
Растворяясь в ночи -
Ты исчезла во мгле,
Словно пламя свечи.

В моих снах нету слез -
В них я рядом с тобой.
Просыпаюсь в бреду -
Пусто рядом со мной.

В моём сердце пустота,
А душа моя мертва!

Я молился на тебя,
Я смотрел в твои глаза,
Словно звёзды в небесах
Мне сияли они.
Дарят свет они не мне -
Я остался в тишине,
Только в доме моём смех
До сих пор твой звенит.
В доме моем смех
До сих пор твой звенит.

Вроде только вчера
Был я рядом с тобой,
Твою руку держал,
Как в мечте золотой.

Ледяная вода
Заменяет мне кровь,
Потому что обман
Уничтожил любовь!

В моём сердце пустота,
А душа моя мертва!

Я молился на тебя...

Тональность:

Это должно быть в ТОП-листе! - Топ-лист композиций



Назад
Рекомендуем посмотреть другие песни исполнителя «Эпидемия»:

  • Комменты Fb ()
  • Комменты ВК



Добавить в Избранное Браузера
Сохранить здесь Очистить


x

0


+
-

+
-

-

Авторизация





Зарегистрироваться

M

Дата и время

  • 14:29:50
     

Социальные ссылки


Наши приложения

  • Muzbank App Play Market
  • Muzbank Amazon App