MUZBANK


МУЗЫКАЛЬНО-ИНФОРМАЦИОННЫЙ БАНК





EEurope • Final Countdown (аккорды и текст - chords & lyrics)


1246

Print

Видео «Final Countdown (Europe)»

Видео клипы к песне подбираются автоматически сайтом youtube. Возможны некоторые несоответствия клипов песне.

↑ Спрятать рекламу ↑






intro
F# D B E F# G# A D C#
E|------------------| |-----------|
A|------5--2--------| |------5-4--|
D|-4--2-------2-3-4-| |-6--7------|
G|------------------|4x |-----------|

Chorus
E|-2-222-222-222-22--------------------------------0-000-000-000-00|
A|-----------------5-555-555-555-552-222-222-222-22----------------|
D|-----------------------------------------------------------------|
G|-----------------------------------------------------------------|2x

Bridge
E|-2-24-4-5-4-2-0----------------------------------------------------|
A|----------------5-555-555-555-554-444-444-444-444-444-444-444-44|
D|----------------------------------------------------------------|
G|----------------------------------------------------------------|

Verse
E|-222*---------222*-444*-555*-----------------444-222-000--------------------|
A|-----0-222*-0---------------4-555*-777*-000*-------------555*-444*-77-77-7/-|
D|----------------------------------------------------------------------------|
G|----------------------------------------------------------------------------|

Guitar solo
E|----------------333*-2-000*-----------333*-|
A|-222*-000*-555*-------------000*-222*------|
D|-------------------------------------------|
G|-------------------------------------------|2x

interlude
E|-2-----------7⁄---------| |-2-24-45-4-2-0-----------|
A|------4-5⁄---------5-7⁄-| |---------------5-5-4---4-|
D|------------------------| |-------------------------|
G|------------------------|2x|-------------------------|

Тональность:

Это должно быть в ТОП-листе! - Топ-лист композиций



Назад
Рекомендуем посмотреть другие песни исполнителя «Europe»:

  • Комменты Fb ()
  • Комменты ВК



Добавить в Избранное Браузера
Сохранить здесь Очистить


x

0


+
-

+
-

-

Авторизация





Зарегистрироваться

M

Дата и время

  • 00:02:59
     

Социальные ссылки


Наши приложения

  • Muzbank App Play Market
  • Muzbank Amazon App