MUZBANK


МУЗЫКАЛЬНО-ИНФОРМАЦИОННЫЙ БАНК





EEurope • Reason (аккорды и текст - chords & lyrics)


485

Print

Видео «Reason (Europe)»

Видео клипы к песне подбираются автоматически сайтом youtube. Возможны некоторые несоответствия клипов песне.

↑ Спрятать рекламу ↑





Intro:

E|------------------------------------| E|------------------------------------|
B|------------------------------------| B|------------------------------------|
G|-7--7-7--5-5--5--12--12-12-11-11-11-| G|-7--7-7--5-5--5--12--12-12-11-11-11-|
D|-7--7-7--5-5--5--12--12-12-11-11-11-| D|-7--7-7--5-5--5--12--12-12-11-11-11-|
A|-9--9-9--7-7--7--9---9--9--8--8--8--| A|-9--9-9--7-7--7--9---9--9--8--8--8--|
E|------------------------------------| E|------------------------------------|

Vers:

This is the way it goes all thrugh the verse so just Play along with the verse
E|------------------------------------| E|------------------------------------|
B|------------------------------------| B|------------------------------------|
G|-7--7-7--5-5--5--12--12-12-11-11-11-| G|-7--7-7--5-5--5--12--12-12-11-11-11-|
D|-7--7-7--5-5--5--12--12-12-11-11-11-| D|-7--7-7--5-5--5--12--12-12-11-11-11-|
A|-9--9-9--7-7--7--9---9--9--8--8--8--| A|-9--9-9--7-7--7--9---9--9--8--8--8--|
E|------------------------------------| E|------------------------------------|

Ref:
Cuse there must be a reason, why you keeping me alive
E|------------------------------------| E|-----------------------|
B|------------------------------------| B|-----------------------|
G|------------------------------------| G|-----------------------|
D|---7-----------9---------------7----| D|-------7-------------7-|
A|---7-----------7---------------5----| A|-------9-------------7-|
E|---5--------------------------------| E|---------------------5-|
On borken days like this, yes there must be a reason, to hope a god exist
E|------------------------------------| E|--------------------------------|
B|------------------------------------| B|--------------------------------|
G|------------------------------------| G|--------------------------------|
D|-----9-----7--------7---------------| D|---------9--------------7-----7-|
A|-----7-----5--------7---------------| A|---------7--------------5-----7-|
E|--------------------5---------------| E|------------------------------5-|

Then Play thi once more and then play this:

Solo:

E|-------------------------------------------|
B|-------------------------------------------|
G|--------7--9-10-----12--10--9----7--9—7-9--|
D|----7--------------------------------------|
A|-------------------------------------------|
E|-------------------------------------------|

E|----------------------------------------|
B|----------------------------------------|
G|-------7--9--10-----12--10--9---7-9-7-9-|
D|----7-----------------------------------|
A|----------------------------------------|
E|----------------------------------------|

E|-------------------------------------------|
B|-------------------------------------------|
G|--------7--9-10-----12--10--9----7--9—7-9--|
D|----7--------------------------------------|
A|-------------------------------------------|
E|-------------------------------------------|

E|-----------------------------------------|
B|-----------------------------------------|
G|-------7--9—10s7-----12--10--9---7-9-7-9-|
D|----7------------------------------------|
A|-----------------------------------------|
E|-----------------------------------------|

E|-------------------------------------------|
B|---10--9--10--12—10------------------------|
G|-------------------------------------------|
D|-------------------------------------------|
A|-------------------------------------------|
E|-------------------------------------------|

Тональность:

Это должно быть в ТОП-листе! - Топ-лист композиций



Назад
Рекомендуем посмотреть другие песни исполнителя «Europe»:

  • Комменты Fb ()
  • Комменты ВК



Добавить в Избранное Браузера
Сохранить здесь Очистить


x

0


+
-

+
-

-

Авторизация





Зарегистрироваться

M

Дата и время

  • 20:07:31
     

Социальные ссылки


Наши приложения

  • Muzbank App Play Market
  • Muzbank Amazon App