MUZBANK



A MOST COMPLETE BANK OF MUSIC INFORMATION

МУЗЫКАЛЬНО-ИНФОРМАЦИОННЫЙ БАНК







    EExploited • Noize Annoys (аккорды и текст - chords & lyrics)


    357

    Print

    Видео «Noize Annoys (Exploited)»

    Видео клипы к песне подбираются автоматически сайтом youtube. Возможны некоторые несоответствия клипов песне.

    ↑ Спрятать рекламу ↑





     
    
    
    Intro:
    
    E|------------------|
    B|------------------|
    G|------------------|
    D|-676--676--676-6--|
    A|-676--676--676-6--|
    E|-454--454--454-4--|
    
    Main riff:
    
    E|--------------|
    B|--------------|
    G|--------------|
    D|-6x-7-7-9-7-6-|
    A|-6x-7-7-9-7-6-|
    E|-4x-5-5-7-5-4-|
    
    Chorus:
    
    E|---------3---------|
    B|---------t---------|
    G|---------i---------|
    D|-4--7-6--m--4--6-7-|
    A|-4--7-6--e--4--6-7-|
    E|-2--5-4--s--2--4-5-|
     

    Тональность:

    Это должно быть в ТОП-листе! - Топ-лист композиций



    Назад
    Рекомендуем посмотреть другие песни исполнителя «Exploited»:

    • Комменты Fb ()
    • Комменты ВК



    Добавить в Избранное Браузера
    Сохранить здесь Очистить


    x

    0


    +
    -

    +
    -

    -

    Авторизация





    Зарегистрироваться

    M

    Дата и время

    • 12:51:46
       

    Социальные ссылки


    Наши приложения

    • Muzbank App Play Market
    • Muzbank Amazon App