MUZBANK


МУЗЫКАЛЬНО-ИНФОРМАЦИОННЫЙ БАНК





FFall Out Boy • 7 minutes in heaven (аккорды и текст - chords & lyrics)


758

Print

Видео «7 minutes in heaven (Fall Out Boy)»

Видео клипы к песне подбираются автоматически сайтом youtube. Возможны некоторые несоответствия клипов песне.

↑ Спрятать рекламу ↑





I'm sleeping my way out of this one
With anyone who will lie down
I'll be stuck fixated on one star
When the world is crashing down

I keep telling myself - I keep telling myself
I'm not the desperate type
But you've got me looking in through blinds
I keep telling myself - I keep telling myself
I'm not the desperate type

Sitting out dances on the wall
Trying to forget everything that isn't you
I'm not going home alone
Cause I don't do too well
Sitting out dances on the wall
Trying to forget everything that isn't you
I'm not going home alone
Cause I don't do too well on my own

The only thing worse than not knowing
Is you thinking that I don't know
I'm having another episode
I just need a stronger dose

I keep telling myself - I keep telling myself
I'm not the desperate type
But you've got me looking in through blinds
I keep telling myself - I keep telling myself
I'm not the desperate type

Sitting out dances on the wall
Trying to forget everything that isn't you
I'm not going home alone
Cause I don't do too well
Sitting out dances on the wall
Trying to forget everything that isn't you
I'm not going home alone
Cause I don't do too well on my own

I keep telling myself - I keep telling myself
I'm not the desperate type
But you've got me looking in through blinds
I keep telling myself - I keep telling myself
I'm not the desperate type

Sitting out dances on the wall
Trying to forget everything that isn't you
I'm not going home alone
Cause I don't do too well on my own


RHYTHM GUITAR

Intro:(Guitar 1)     
 
e ----------------------------------------------------- 
b -------5-4---5-4---5-4---5-4---5-4------------------- 
g -------4-4-4-4-4-4-4-4-4-4-4-4-4-4-4----------------- 
d ----------------------------------------------------- 
a ----------------------------------------------------- 
e ----------------------------------------------------- 
 
Guitar 1:(x2) 
e ----------------------------------------------------- 
b ----------------------------------------------------- 
g ------11-11-11---8---6-6-6----4--11-11--8-8-6-6-6-8-6 
d ------xx-xx-xx---x---x-x-x----x--xx-xx--x-x-x-x-x-x-x 
a ------9 -9 -9 ---6---4-4-4----2--9 -9 --6-6-4-4-4-6-4 
e ----------------------------------------------------- 
 
Guitar 2:(x2) 
e ----------------------------------------------------- 
b ----------------------------------------------------- 
g --4-4-4-4-------------------------------------------- 
d --4-4-4-4--4--2-2-2-2--4--6-6-4-4--2-2-4-4-4--------- 
a --2-2-2-2--4--2-2-2-2--4--6-6-4-4--2-2-4-4-4--------- 
e -----------2-----------2--4-4-2-2------2-2-2--------- 
 
Verse::(Guitar 1) 
e ----------------------------------------------------- 
b -------5-4---5-4---5-4---5-4---5-4------------------- 
g -------4-4-4-4-4-4-4-4-4-4-4-4-4-4-4----------------- 
d ----------------------------------------------------- 
a ----------------------------------------------------- 
e ----------------------------------------------------- 
 
Guitar 2:(Palm-Muted) 
e ----------------------------------------------------- 
b ----------------------------------------------------- 
g -------------------------6-6-6-6-6-6-6-4-4-4-4-4-4-4- 
d 6-6-6-6-6-6--9-9-9-9-9-9-6-6-6-6-6-6-6-4-4-4-4-4-4-4- 
a 6-6-6-6-6-6--9-9-9-9-9-9-4-4-4-4-4-4-4-2-2-2-2-2-2-2- 
e 4-4-4-4-4-4--7-7-7-7-7-7----------------------------- 
 
Pre-Chorus:(Guitar 1 and Guitar 2) 
e ----------------------------------------------------- 
b ----------------------------------------------------- 
g --4-4-4-4-------------------------------------------- 
d --4-4-4-4--4--2-2-2-2--4--6-6-4-4--2-2-4-4-4--------- 
a --2-2-2-2--4--2-2-2-2--4--6-6-4-4--2-2-4-4-4--------- 
e -----------2-----------2--4-4-2-2------2-2-2--------- 
 
Chorus:(Guitar 1 and Guitar 2) 
e ----------------------------------------------------- 
b ----------------------------------------------------- 
g --4-4-4-4-------------------------------------------- 
d --4-4-4-4--4--2-2-2-2--4--6-6-4-4--2-2-4-4-4--------- 
a --2-2-2-2--4--2-2-2-2--4--6-6-4-4--2-2-4-4-4--------- 
e -----------2-----------2--4-4-2-2------2-2-2--------- 
 
Repeat Intro Guitar 1(x2) 
e ----------------------------------------------------- 
b ----------------------------------------------------- 
g ------11-11-11---8---6-6-6----4--11-11--8-8-6-6-6-8-6 
d ------xx-xx-xx---x---x-x-x----x--xx-xx--x-x-x-x-x-x-x 
a ------9 -9 -9 ---6---4-4-4----2--9 -9 --6-6-4-4-4-6-4 
e ----------------------------------------------------- 
 
Guitar 2(x2) 
e ----------------------------------------------------- 
b ----------------------------------------------------- 
g --4-4-4-4-------------------------------------------- 
d --4-4-4-4--4--2-2-2-2--4--6-6-4-4--2-2-4-4-4--------- 
a --2-2-2-2--4--2-2-2-2--4--6-6-4-4--2-2-4-4-4--------- 
e -----------2-----------2--4-4-2-2------2-2-2--------- 
 
Verse,Pre-Chorus and Chorus Repeat 
 
 
Guitar 2 :(Palm-Muted)(x2) 
e ----------------------------------------------------- 
b ----------------------------------------------------- 
g ------------6-6-6-6-6-6-9-9-9-9-9-9-9-4-4-4-4-4-4-4-4 
d 6-6-6-6-6-6-6-6-6-6-6-6-9-9-9-9-9-9-9-4-4-4-4-4-4-4-4 
a 6-6-6-6-6-6-4-4-4-4-4-4-7-7-7-7-7-7-7-2-2-2-2-2-2-2-2 
e 4-4-4-4-4-4------------------------------------------ 
 
Guitar 1: 
e ----------------------------------------------------- 
b -------5-4---5-4---5-4---5-4---5-4------------------- 
g -------4-4-4-4-4-4-4-4-4-4-4-4-4-4-4----------------- 
d ----------------------------------------------------- 
a ----------------------------------------------------- 
e ----------------------------------------------------- 
 
Ending: 
e ----------------------------------------------------- 
b ----------------------------------------------------- 
g --4-4-x---------------------------------------------- 
d --4-4-x--4-4-x--6-6-6--2-2-4-4-4--------------------- 
a --2-2-x--4-4-x--6-6-6--2-2-4-4-4--------------------- 
e ---------2-2-x--4-4-4------2-2-2--------------------- 
 
e ----------------------------------------------------- 
b -------4-------4--------4---------4---2-------------- 
g --4h6-----4h6------4h6-------4h6--------------------- 
d ----------------------------------------------------- 
a ----------------------------------------------------- 
e ----------------------------------------------------- 
 
Final acoustic: 
e ----------------------------------------------------- 
b ----------------------------------------------------- 
g --4-4-4-4-------------------------------------------- 
d --4-4-4-4--4--2-2-2-2--4--6-6-4-4--2-2-4-4-4--------- 
a --2-2-2-2--4--2-2-2-2--4--6-6-4-4--2-2-4-4-4--------- 
e -----------2-----------2--4-4-2-2------2-2-2--------- 
 

BASS GUITAR

Bass Intro 
G  -------------------------| 
D  -------------------------| 
A  2222---------------------| 
E  -----2-0000-2-44-2200h2--| 
 
Verse 
 
G  -----------------------------------------------------------------------------| 
D  -----------------------------------------------------------------------------| 
A  222222222222222-44444444444444444------------------2222222222222222----------| 
E  ----------------------------------0000000000000000---------------------------| 
 
G  -----------------------------------------------------------------------------| 
D  -----------------------------------------------------------------------------| 
A  222222222222222-44444444444444444--------------------------------------------| 
E  ----------------------------------0000000000000000-0000000000000000----------| 
 
 
Pre Chorus 
 
G  -----------------------| 
D  -----------------------| 
A  22---------------------| 
E  ---2-00-2-44-200000002-| 
 
G  -------------------------| 
D  -------------------------| 
A  2222---------------------| 
E  -----2-0000-2-44-2200h2--| 
 
Chorus: 
 
G  --------------------| 
D  --------------------| 
A  22------------------| 
E  ---2-00-2-44-20-0h2-| 
 
Verse 
 
G  -----------------------------------------------------------------------------| 
D  -----------------------------------------------------------------------------| 
A  222222222222222-44444444444444444------------------2222222222222222----------| 
E  ----------------------------------0000000000000000---------------------------| 
 
G  -----------------------------------------------------------------------------| 
D  -----------------------------------------------------------------------------| 
A  222222222222222-44444444444444444--------------------------------------------| 
E  ----------------------------------0000000000000000-0000000000000000----------| 
 
Pre Chorus 
 
G  -----------------------| 
D  -----------------------| 
A  22---------------------| 
E  ---2-00-2-44-200000002-| 
 
G  -------------------------| 
D  -------------------------| 
A  2222---------------------| 
E  -----2-0000-2-44-2200h2--| 
 
 
G  --------------------| 
D  --------------------| 
A  22------------------| 
E  ---2-00-2-44-20-0h2-| 
 
Bridge 
 
G  --------------------------------------------------------------------| 
D  --------------------------------------------------------------------| 
A  222222222222222-44444444444444444-7777777777777777-2222222222222222-| 
E  --------------------------------------------------------------------| 
 
G  --------------------------------------------------------------------| 
D  --------------------------------------------------------------------| 
A  222222222222222-44444444444444444-7777777777777777-7777777777777777-| 
E  --------------------------------------------------------------------| 
 
Ending 
 
G  --------------------| 
D  --------------------| 
A  22X-----------------| 
E  ----22X-44-00-2222--| 
 
G  ----------------------| 
D  ----------------------| 
A  22--------------------| 
E  ---2-00-2-44-22-00-22-| 

 



Тональность:

Это должно быть в ТОП-листе! - Топ-лист композиций



Назад
Рекомендуем посмотреть другие песни исполнителя «Fall Out Boy»:

  • Комменты Fb ()
  • Комменты ВК



Добавить в Избранное Браузера
Сохранить здесь Очистить


x

0


+
-

+
-

-

Авторизация





Зарегистрироваться

M

Дата и время

  • 08:48:25
     

Социальные ссылки


Наши приложения

  • Muzbank App Play Market
  • Muzbank Amazon App