MUZBANK



A MOST COMPLETE BANK OF MUSIC INFORMATION

МУЗЫКАЛЬНО-ИНФОРМАЦИОННЫЙ БАНК







    FFinch • Grey Matter (аккорды и текст - chords & lyrics)


    297

    Print

    Видео «Grey Matter (Finch)»

    Видео клипы к песне подбираются автоматически сайтом youtube. Возможны некоторые несоответствия клипов песне.

    ↑ Спрятать рекламу ↑





     
    
    
    Finch - Grey Matter
    Transcribed By: Stephen Saldivar
    
    e|-----2-----2-----2---------------------------------------------------
    B|------4-----4--------------------------------------------------------
    G|-3h4----3h4---3h4----------------------------------------------------
    D|---------------------------------------------------------------------
    A|---------------------------------------------------------------------
    E|---------------------------------------------------------------------
    
    e|---------------------------------------------------------------------
    B|-----------0-0-------------------------------------------------------
    G|---4---4----3--------------------------------------------------------
    D|--2-2-2-2-1---1------------------------------------------------------
    A|-4---4---2-----2-----------------------------------------------------
    E|---------------------------------------------------------------------
    
    e|---------------------------------------------------------------------
    B|---------------------------------------------------------------------
    G|-xxxxxxx-444 

    Тональность:

    Это должно быть в ТОП-листе! - Топ-лист композиций



    Назад
    Рекомендуем посмотреть другие песни исполнителя «Finch»:

    • Комменты Fb ()
    • Комменты ВК



    Добавить в Избранное Браузера
    Сохранить здесь Очистить


    x

    0


    +
    -

    +
    -

    -

    Авторизация





    Зарегистрироваться

    M

    Дата и время

    • 03:41:47
       

    Социальные ссылки


    Наши приложения

    • Muzbank App Play Market
    • Muzbank Amazon App