MUZBANK


МУЗЫКАЛЬНО-ИНФОРМАЦИОННЫЙ БАНК





GGarbage • #1 Crush (аккорды и текст - chords & lyrics)


610

Print

Видео «#1 Crush (Garbage)»

Видео клипы к песне подбираются автоматически сайтом youtube. Возможны некоторые несоответствия клипов песне.

↑ Спрятать рекламу ↑





TUNING: D G C F A D


INTRO/VERSE

Guitar 1 - Clean - plays throughout verse
|----0------0-------0--------|
|-------------------------0--|
|--------3--------3-----3----|
|-2----2-------2------2------|
|----------------------------|
|----------------------------|


Guitar 2 - distorted
|------------------------|
|------------------------|
|-5----2-----------------|
|-5----2-----------------|
|-3----0-----------------|
|-----------0b1r0--------|
^play this with a whammy bar or bend behind the nut


BRIDGE

Guitar 2
|----------------------|
|----------------------|
|-----------5--2-------|
|-2----2----5--2--2----|
|-2----2----3--0--2----|
|-0----0----------0----|


VERSE 2 - Same


CHORUS - Implied chords

|-0----0----1---------|
|-1----1----1----3----|
|-0----2----2----2----|
|-2----2----3----0----|
|-3----0----3---------|
|-----------1---------|


Then play the verse rhythm a bit before the interlude


INTERLUDE

Guitar 1
|----0-----0------0-----0--|
|--------4------4-----4----|
|-2----2-----2------2------|
|--------------------------|
|--------------------------|
|--------------------------|
|Guitar 2
|--------------------------|
|--------------------------|
|-2------------------------|
|-2------------------------|
|-0------------------------|
|--------------------------|


Guitar 2
|--------------------|
|--------------------|
|------7----2--------|
|-3----7----2--------|
|-3----5----0--------|
|-1------------------|


CHORUS 2 - Same


OUTRO - Play the verse rhythm

Тональность:

Это должно быть в ТОП-листе! - Топ-лист композиций



Назад
Рекомендуем посмотреть другие песни исполнителя «Garbage»:

  • Комменты Fb ()
  • Комменты ВК



Добавить в Избранное Браузера
Сохранить здесь Очистить


x

0


+
-

+
-

-

Авторизация





Зарегистрироваться

M

Дата и время

  • 06:30:00
     

Социальные ссылки


Наши приложения

  • Muzbank App Play Market
  • Muzbank Amazon App