MUZBANK



A MOST COMPLETE BANK OF MUSIC INFORMATION

МУЗЫКАЛЬНО-ИНФОРМАЦИОННЫЙ БАНК







    GGarbage • Androgyny (аккорды и текст - chords & lyrics)


    282

    Print

    Видео «Androgyny (Garbage)»

    Видео клипы к песне подбираются автоматически сайтом youtube. Возможны некоторые несоответствия клипов песне.

    ↑ Спрятать рекламу ↑






     
    
    
    Garbage - Androgyny
    Tabbed By: Myke
    EMail: A_Violet_Fluid@hotmail.com
    
    Standard Tuning
    
    Intro/Chorus (Guitar 1):
    
    |----------------------------------------------|
    |----------------------------------------------|
    |----------------------------------------------|
    |------2----------------------2----------------|
    |-----------0h2-5--0h2-------------0h2-5--0h2--|
    |--0-0--------------------0-0------------------|
    
    Intro/Chorus (Guitar 2):
    
    |----------------------------------------------|
    |-------5----------------------5---------------|
    |-------4----------------------4---------------|
    |--2-2--2-----------------2-2--2---------------|
    |--2-2--------------------2-2------------------|
    |--0-0--------------------0-0------------------|
    
    Verse (Guitar 1):
    
    |-------------|
    |-------------|
    |--2/42p0----|
    |----------2--|
    |-------------|
    |-------------|
     

    Тональность:

    Это должно быть в ТОП-листе! - Топ-лист композиций



    Назад
    Рекомендуем посмотреть другие песни исполнителя «Garbage»:

    • Комменты Fb ()
    • Комменты ВК



    Добавить в Избранное Браузера
    Сохранить здесь Очистить


    x

    0


    +
    -

    +
    -

    -

    Авторизация





    Зарегистрироваться

    M

    Дата и время

    • 23:31:25
       

    Социальные ссылки


    Наши приложения

    • Muzbank App Play Market
    • Muzbank Amazon App