MUZBANK


МУЗЫКАЛЬНО-ИНФОРМАЦИОННЫЙ БАНК





GGarbage • Is Wide (аккорды и текст - chords & lyrics)


389

Print

Видео «Is Wide (Garbage)»

Видео клипы к песне подбираются автоматически сайтом youtube. Возможны некоторые несоответствия клипов песне.

↑ Спрятать рекламу ↑





-------------|------------------|---------------------------------------------
-------------|------------------|---------------------------------------------
-------------|------------------|---------------------------------------------
-----2-------|-----2------------|---------------------------------------------
---------1---|---------1b2--r---|---------------------------------------------
-0-0---0-----|-0-0---0--------3-|---------------------------------------------
play above riff for intro and verses.

---------|---------|---------|---------|---------|---------|------------------
---------|---------|---------|---------|---------|---------|------------------
-2---2---|-2---2---|-4---4---|-4---4---|-5---5---|-5---5---|------------------
-2---2---|-2---2---|-4---4---|-4---4---|-5---5---|-5---5---|------------------
-0---0---|-0---0---|-2---2---|-2---2---|-3---3---|-3---3---|------------------
---------|---------|---------|---------|---------|---------|------------------


---------|---------|----------------------------------------------------------
---------|---------|----------------------------------------------------------
-7---7---|-7---7---|----------------------------------------------------------
-7---7---|-7---7---|----------------------------------------------------------
-5---5---|-5---5---|----------------------------------------------------------
---------|---------|----------------------------------------------------------
chorus

--------------|----|--------------|----|--------------------------------------
-12--------12-|----|-11--------11-|----|--------------------------------------
--------12----|----|--------12----|----|--------------------------------------
-----14-------|----|-----14-------|----|--------------------------------------
--------------|----|--------------|----|--------------------------------------
--------------|----|--------------|----|--------------------------------------
verse 2 /=play note with trem bar down & release bar.

------|-----------|------|----------|------|-----------|------|---------------
------|-----------|------|----------|------|-----------|------|---------------
-9----|----12/----|-9----|----14/---|-9----|-----12/---|-7----|---------------
-9----|----12/----|-9----|----14/---|-9----|-----12/---|-7----|---------------
-7----|----10/----|-7----|----12/---|-7----|-----10/---|-5----|---------------
------|-----------|------|----------|------|-----------|------|---------------
ending

------------------|-----------|-----------------------------------------------
------------------|-----------|-----------------------------------------------
------------------|-----------|-----------------------------------------------
-----2---2---2----|-----------|-----------------------------------------------
------------------|------5-5--|-----------------------------------------------
-0-0---0---0---0--|--0-0-3-3--|-----------------------------------------------

Тональность:

Это должно быть в ТОП-листе! - Топ-лист композиций



Назад
Рекомендуем посмотреть другие песни исполнителя «Garbage»:

  • Комменты Fb ()
  • Комменты ВК



Добавить в Избранное Браузера
Сохранить здесь Очистить


x

0


+
-

+
-

-

Авторизация





Зарегистрироваться

M

Дата и время

  • 10:50:08
     

Социальные ссылки


Наши приложения

  • Muzbank App Play Market
  • Muzbank Amazon App