MUZBANK


МУЗЫКАЛЬНО-ИНФОРМАЦИОННЫЙ БАНК





GGarbage • Not My Idea (аккорды и текст - chords & lyrics)


361

Print

Видео «Not My Idea (Garbage)»

Видео клипы к песне подбираются автоматически сайтом youtube. Возможны некоторые несоответствия клипов песне.

↑ Спрятать рекламу ↑





---------------------|--------------------|-----------------------------------
---------------------|--------------------|-----------------------------------
---------------------|--------------------|-----------------------------------
-7-xx-7-xx-7-xx-7-xx-|-7-xx-7-xx-7-xx-8-8-|-----------------------------------
-7-xx-7-xx-7-xx-7-xx-|-7-xx-7-xx-7-xx-8-8-|-----------------------------------
-5-xx-5-xx-5-xx-5-xx-|-5-xx-5-xx-5-xx-6-6-|-----------------------------------


---------------------|--------------------|-------------------------|---------
----------------12---|--------------------|-------------------------|---------
---------12----------|------12---------15-|----------12-------15b17-|---------
------14----14-------|-14---------14------|-------14----14----------|---------
-12------------------|--------------------|-12----------------------|---------
---------------------|--------------------|-------------------------|---------
intro and verse. doo doo doo bit. chords without rythm.

------|-----|------|-----|----------------------------------------------------
------|-----|------|-0---|----------------------------------------------------
-10---|-5---|-10---|-0---|----------------------------------------------------
-10---|-5---|-10---|-2---|----------------------------------------------------
-8----|-3---|-8----|-3---|----------------------------------------------------
------|-----|------|-----|----------------------------------------------------
chorus. 2nd riff.1st riff as first part of intro

-------19b20-------------|----------------------------------------------------
-19b20------------19b20--|----------------------------------------------------
--------------18---------|----------------------------------------------------
-------------------------|-x4-------------------------------------------------
-------------------------|----------------------------------------------------
-------------------------|----------------------------------------------------
bridge

----------------------|-------------------------------------------------------
----------------------|-------------------------------------------------------
----------------------|-------------------------------------------------------
-xxxx-xxxx-xxxx-xxxx--|-x4----------------------------------------------------
-xxxx-xxxx-xxxx-xxxx--|-------------------------------------------------------
----------------------|-------------------------------------------------------
riff 2

----------------------|-------------------------------------------------------
------------12--12----|-------------------------------------------------------
----------------------|-------------------------------------------------------
----------------------|-x4----------------------------------------------------
-xxxx-xxxx-x--xx--xxx-|-------------------------------------------------------
----------------------|-------------------------------------------------------
post-bridge (key change)and verse 3

------|-----|------|-----|----------------------------------------------------
-12---|-7---|-12---|-2---|----------------------------------------------------
-12---|-7---|-12---|-2---|----------------------------------------------------
-12---|-7---|-12---|-4---|----------------------------------------------------
-10---|-5---|-10---|-5---|----------------------------------------------------
------|-----|------|-----|----------------------------------------------------
chorus 3 and outro

----------------------|----------------------|--------------------------------
----------------------|----------------------|--------------------------------
----------------------|----------------------|--------------------------------
-9-xx-9-xx-9-xx-9-xx--|-9-xx-9-xx-9-xx-10-10-|--------------------------------
-9-xx-9-xx-9-xx-9-xx--|-9-xx-9-xx-9-xx-10-10-|--------------------------------
-7-xx-7-xx-7-xx-7-xx--|-7-xx-7-xx-7-xx-8--8--|--------------------------------
riff 2

----------------------|----------------------|--------------------------------
------------------14--|----------------------|--------------------------------
----------14----------|-------14--------17---|--------------------------------
-------16----16-------|-16---------16--------|--------------------------------
-14-------------------|----------------------|--------------------------------
----------------------|----------------------|--------------------------------

Тональность:

Это должно быть в ТОП-листе! - Топ-лист композиций



Назад
Рекомендуем посмотреть другие песни исполнителя «Garbage»:

  • Комменты Fb ()
  • Комменты ВК



Добавить в Избранное Браузера
Сохранить здесь Очистить


x

0


+
-

+
-

-

Авторизация





Зарегистрироваться

M

Дата и время

  • 18:49:24
     

Социальные ссылки


Наши приложения

  • Muzbank App Play Market
  • Muzbank Amazon App