MUZBANK


МУЗЫКАЛЬНО-ИНФОРМАЦИОННЫЙ БАНК





GGarbage • Special (аккорды и текст - chords & lyrics)


453

Print

Видео «Special (Garbage)»

Видео клипы к песне подбираются автоматически сайтом youtube. Возможны некоторые несоответствия клипов песне.

↑ Спрятать рекламу ↑





INTRO
|---------------------------------------------------|
|-----0-----0---------0-----0---------0-----0-----4-|
|---2-----2-----2---2-----2-----2---2-----2-----6-4-|
|-4-----4-----4---2-----2-----2---1-----1---------4-|
|---------------------------------------------4---2-|
|---------------------------------------------------|


VERSE
|-------------------------|
|-------------------------|
|----6-----6-----4-----4--|
|-2--6--2--6--4--4--4--4--|
|-2--4--2--4--4--2--4--2--|
|-0-----0-----2-----2-----|


CHORUS
|----------------------------|
|----------------------------|
|-2--4--2--4-----2--8--6--4--|
|-2--4--2--4--4--2--8--6--4--|
|-0--2--0--2--4--0--6--4--2--|
|-------------2--------------|


VERSE 2 - Same


BRIDGE
|---------------|
|------0------0-|
|--------11-----|
|----8------8---|
|-11------------|
|---------------|


VERSE 3
|-------------|
|-------------|
|----4-----4--|
|-4--4--4--4--|
|-4--2--4--2--|
|-2-----2-----|


CHORUS 2
|----------------------------------|
|----------------------------------|
|-2--4--2--4--2--6--------8--6--4--|
|-2--4--2--4--2--6--4--2--8--6--4--|
|-0--2--0--2--0--4--4--2--6--4--2--|
|-------------------2--0-----------|



OUTRO
Play these 2 and fade out...
|-------|
|-------|
|-2--6--|
|-2--6--|
|-0--4--|
|-------|

E C#m
I'm living without you
E C#m
I know all about you
F#m B
I have run you down into the ground
F#m B
Spread disease about you over town

E C#m
I used to adore you
E C#m
I couldn't control you
F#m B
There was nothing that I wouldn't do
F#m B
To keep myself around and close to you

A
Do you have an opinion ?
B
A mind of your own?
A
I thought you were special
B
I thought you should know
A
But I've run out of patience
B
I couldn't care less

E C#m
I...
E C#m
I...

A
Do you have an opinion ?
B
A mind of your own ?
A
I thought you were special
B
I thought you should know

E C#m
I used to amuse you
E C#m
I knew that I'd lose you
F#m B
Now you're here and begging for a chance
F#m B
But there's no way in hell I'd take you back

A
Do you have an opinion?
B
A mind of your own?
A
I thought you were special
B
I thought you should know
A
But I've run out of patience
C#m
I've run out of comments
A
I'm tired of the violence
B
I couldn't care less

A |
I'm looking for a new | x2
C#m |
I'm looking for a new |


A |
You were the talk of the town | x2
C#m |
You were the talk of the town |

A |
I thought you were special | x2
C#m |
I thought you were special |


And fade out or you can just end it on A.

Тональность:

Это должно быть в ТОП-листе! - Топ-лист композиций



Назад
Рекомендуем посмотреть другие песни исполнителя «Garbage»:

  • Комменты Fb ()
  • Комменты ВК



Добавить в Избранное Браузера
Сохранить здесь Очистить


x

0


+
-

+
-

-

Авторизация





Зарегистрироваться

M

Дата и время

  • 15:27:14
     

Социальные ссылки


Наши приложения

  • Muzbank App Play Market
  • Muzbank Amazon App