MUZBANK


МУЗЫКАЛЬНО-ИНФОРМАЦИОННЫЙ БАНК





GGarbage • When I Grow Up (аккорды и текст - chords & lyrics)


554

Print

Видео «When I Grow Up (Garbage)»

Видео клипы к песне подбираются автоматически сайтом youtube. Возможны некоторые несоответствия клипов песне.

↑ Спрятать рекламу ↑






INTRO
|---------------------------------------|
|----------16------------------------16-|
|-13-15-16-----13-15-16-13--13-15-16----|
|---------------------------------------|
|---------------------------------------|
|---------------------------------------|


|-------------|
|-------------|
|-------------|
|-9--6--4--2--|
|-9--6--4--2--|
|-7--4--2--0--|


VERSE - Guitars tacet


CHORUS
|-------------|
|-------------|
|-------------|
|-2--6--2--4--|
|-2--6--2--4--|
|-0--4--0--2--|


VERSE 2 - Same


CHORUS 2 - Same


BRIDGE
|-------------|
|-------------|
|-------------|
|-9--6--4--2--|
|-9--6--4--2--|
|-7--4--2--0--|


VERSE 3 - Same

Rhythm fill (palm muted)
|-----|
|-----|
|-----|
|-9-9-|
|-9-9-|
|-7-7-|


CHORUS 3 - Guitars tacet

Lead fades in with this
|-------------------------|
|-------------------------|
|-10-10-10-10-10-10-10-10-|
|-------------------------|
|-------------------------|
|-------------------------|


BRIDGE 2
1.5.
|-------------|
|-------------|
|-------------|
|-9--6--4--2--|
|-9--6--4--2--|
|-7--4--2--0--|

2.3.4.6.
|-------------|
|-------------|
|-------------|
|-9--6--4--7--|
|-9--6--4--7--|
|-7--4--2--5--|


OUTRO - Everything tacet

Тональность:

Это должно быть в ТОП-листе! - Топ-лист композиций



Назад
Рекомендуем посмотреть другие песни исполнителя «Garbage»:

  • Комменты Fb ()
  • Комменты ВК



Добавить в Избранное Браузера
Сохранить здесь Очистить


x

0


+
-

+
-

-

Авторизация





Зарегистрироваться

M

Дата и время

  • 02:26:49
     

Социальные ссылки


Наши приложения

  • Muzbank App Play Market
  • Muzbank Amazon App