MUZBANK


МУЗЫКАЛЬНО-ИНФОРМАЦИОННЫЙ БАНК





GGenesis • Cinema Show (аккорды и текст - chords & lyrics)


533

Print

Видео «Cinema Show (Genesis)»

Видео клипы к песне подбираются автоматически сайтом youtube. Возможны некоторые несоответствия клипов песне.

↑ Спрятать рекламу ↑





INTRO

|--17--17--17--17|--13--13--13--13-|--13--13--13--13-|--10--10--10--10-|
|----------------|-----------------|-----------------|-----------------|
|----15--15--15--|----15--15--15---|----12--12--12---|----12--12--12---|
|-0--------------|-0---------------|-0---------------|-0---------------|
|----------------|-----------------|-----------------|-----------------|
|----------------|-----------------|-----------------|-----------------|

|--12--12--12--12|---8---8---8---8-|---8---8---8---8-|--5---5---5---5--|
|----------------|-----------------|-----------------|-----------------|
|----10--10--10--|----10--10---10--|-----7---7---7---|----7---7---7----|
|-0--------------|-0---------------|-0---------------|-0---------------|
|----------------|-----------------|-----------------|-----------------|
|----------------|-----------------|-----------------|-----------------|

|----------------|---3---3---3---3-|-----------------|
|--8---8---8---8-|-----------------|---6---6---6---6-|
|----7---7---7---|-----5---5---5---|-----5---5---5---|
|-0--------------|-0---------------|-0---------------|
|----------------|-----------------|-----------------|
|----------------|-----------------|-----------------|

|--1---1---1---1-|---0---0---0---0-|---1---1---1---1-|---0---0---0---0-|
|----------------|-----------------|-----------------|-----------------|
|----3---3---3---|-----3---3---3---|-----3---3---3---|-----3---3---3---|
|----------------|-----------------|-----------------|-----------------|
|----------------|-----------------|-----------------|-----------------|
|-3--------------|-3---------------|-3---------------|-3---------------|

VERSES

Home from work our Juliet clears her morning meal . . . She
Romeo locks his basement flat and scurries up the stair with
|-----10------10-|------10--10--10-|------10------10-|------10--10--10-|
|--7-------7-----|---7-------------|---8-------8-----|---8-------------|
|----9-------9---|-----9---9---9---|-----9-------9---|-----9---9----9--|
|-0------0-------|-0---------------|-0-------0-------|-0---------------|
|----------------|-----------------|-----------------|-----------------|
|--------------0-|-----------------|-----------------|-----------------|

dabs her skin with pretty smells concealing to appeal
head held high and floral tie a weekend millionaire
|-----10------10-|------10--10--10-|------10------10-|------10--10--10-|
|--7-------7-----|---7-------------|---8-------8-----|---8-------------|
|----9-------9---|-----9---9---9---|-----9-------9---|-----9---9----9--|
|-0------0-------|-0---------------|-0-------0-------|-0---------------|
|----------------|-----------------|-----------------|-----------------|
|--------------0-|-----------------|-----------------|-----------------|

"I will make my bed" she said but turned to go
"I will make my bed with her tonight" he cries
|-----12-10---12-|------12-10---12-|------12-10---12-|------12-10---12-|
|--10-----10-----|--10------10-----|--11------11-----|--11------11-----|
|---10------10---|----10------10---|----10------10---|----10------10---|
|-0--------------|-0---------------|-0---------------|-0---------------|
|----------------|-----------------|-----------------|-----------------|
|----------------|-----------------|-----------------|-----------------|


Can she be late for her cinema show
Can he fail armed with his (G chord) chocolate surprise
|------------13--|-------------15--|----12-----------|-12--------------|
|-----11---------|-----13----------|------------13---|---------13--10--|
|---------10-----|---------12------|--------10-------|-----10----------|
|-0--------------|-0---------------|--0--------------|-----------------|
|----------------|-----------------|-----------------|-----------------|
|----------------|-----------------|-----------------|-----------------|


Cinema show
|-----10------10-|------10--10--10-|------10------10-|------10--10--10-|
|--7-------7-----|---7-------------|---8-------8-----|---8-------------|
|----9-------9---|-----9---9---9---|-----9-------9---|-----9---9----9--|
|-0------0-------|-0---------------|-0-------0-------|-0---------------|
|----------------|-----------------|-----------------|-----------------|
|--------------0-|-----------------|-----------------|-----------------|

Тональность:

Это должно быть в ТОП-листе! - Топ-лист композиций



Назад
Рекомендуем посмотреть другие песни исполнителя «Genesis»:

  • Комменты Fb ()
  • Комменты ВК



Добавить в Избранное Браузера
Сохранить здесь Очистить


x

0


+
-

+
-

-

Авторизация





Зарегистрироваться

M

Дата и время

  • 20:44:43
     

Социальные ссылки


Наши приложения

  • Muzbank App Play Market
  • Muzbank Amazon App