MUZBANK


МУЗЫКАЛЬНО-ИНФОРМАЦИОННЫЙ БАНК





GGenesis • Firth Of Fifth (аккорды и текст - chords & lyrics)


425

Print

Видео «Firth Of Fifth (Genesis)»

Видео клипы к песне подбираются автоматически сайтом youtube. Возможны некоторые несоответствия клипов песне.

↑ Спрятать рекламу ↑





e|-14-----------------------------------------------------------------|
B|----12~~~--------------------------------17p15-17p15-17p15-17/s⁄7~~-|
G|----------11h12p11--9-----------12-11~~~----------------------------|
D|----------------------12~~~~-12-------------------------------------|
A|--------------------------------------------------------------------|
E|--------------------------------------------------------------------|

e|------------------------------------------------------------------|
B|-12p10-12p10-12p10-12/s⁄3~~~-17p15-17p15-17p15-17/s⁄7/s⁄12/s⁄3~~~-|
G|------------------------------------------------------------------|
D|------------------------------------------------------------------|
A|------------------------------------------------------------------|
E|------------------------------------------------------------------|

{~trill~}
e|-----------------------------------------------------------------12-|
B|-5-7h8----------------------------------------13--------------15----|
G|-------4~~~--7p4-----7/s⁄9--11-12-14/s⁄16~~~-----16--14-16~~--------|
D|--------------------------------------------------------------------|
A|--------------------------------------------------------------------|
E|--------------------------------------------------------------------|

sustain note........ (slow release)
e|-12-12h14------------------b15--14b15r14-------------------------|
B|------------------------------------------12-13--7b8-------------|
G|-----------------------------------------------------------------|
D|-----------------------------------------------------------------|
A|-----------------------------------------------------------------|
E|-----------------------------------------------------------------|

e|---------------------------------------12-11~~~--------------|
B|-12--12-13----13----13----13--------12-----------12p10-12~~~-|
G|-----------14----12----11--------12--------------------------|
D|------------------------------14-----------------------------|
A|-------------------------------------------------------------|
E|-------------------------------------------------------------|

e|-----------------------------------------------------12-14-14b15-|
B|--------------------------------------------12-13-15-------------|
G|-----------------------------------11-12-14----------------------|
D|-12-14-14b16r14~~~--10-12-14-13-14-------------------------------|
A|-----------------------------------------------------------------|
E|-----------------------------------------------------------------|



(slow release)
e|-14b15r14-------------------------------------------------------|
B|-----------12-13--7b8---------------12--12-13----13----13----13-|
G|----------------------------------------------14----12----11----|
D|----------------------------------------------------------------|
A|----------------------------------------------------------------|
E|----------------------------------------------------------------|

e|----------12-11~~~--------------------------------------------|
B|-------12----------12p10-12~~~--------------------------------|
G|----12--------------------------------------------------------|
D|-14----------------------------12-14-14b16r14~~~--10-12-14-13-|
A|--------------------------------------------------------------|
E|--------------------------------------------------------------|

e|--------------------------------------------------------------|
B|----------------------12p10-10~~~-----------------------------|
G|----12-11~~~-14----------------------7----------------9-11h12-|
D|-13-------------10~~~--------------9---9-7------7--9----------|
A|-------------------------------------------7-10---------------|
E|--------------------------------------------------------------|

e|---------------------------------------------------|
B|---------------15b17r15~~~-------------------------|
G|-14-14/s⁄16~~~-------------------------------------|
D|---------------------------7b9r7~~~-9--7-7~~~-7-13-|
A|---------------------------------------------------|
E|---------------------------------------------------|

(bridge pickup)
e|-----------------------11-12-14-14b15--14b15r14-------------|
B|--------------12-13-15---------------------------12-13--7b8-|
G|-----11-12-14-----------------------------------------------|
D|-14---------------------------------------------------------|
A|------------------------------------------------------------|
E|------------------------------------------------------------|

e|---------------------------------------12-11~~~-------------|
B|-12--12-13----13----13----13--------12----------12p10-12~~~-|
G|-----------14----12----11--------12-------------------------|
D|------------------------------14----------------------------|
A|------------------------------------------------------------|
E|------------------------------------------------------------|

e|----------------------------------------------|
B|----------------------------------------------|
G|----------------------------------------------|
D|-12-14-14b16r14~~~-10-12-14-13~~~--13-14------|
A|----------------------------------------------|
E|----------------------------------------------|

Тональность:

Это должно быть в ТОП-листе! - Топ-лист композиций



Назад
Рекомендуем посмотреть другие песни исполнителя «Genesis»:

  • Комменты Fb ()
  • Комменты ВК



Добавить в Избранное Браузера
Сохранить здесь Очистить


x

0


+
-

+
-

-

Авторизация





Зарегистрироваться

M

Дата и время

  • 16:27:27
     

Социальные ссылки


Наши приложения

  • Muzbank App Play Market
  • Muzbank Amazon App