MUZBANK


МУЗЫКАЛЬНО-ИНФОРМАЦИОННЫЙ БАНК





GGenesis • Musical Box (аккорды и текст - chords & lyrics)


456

Print

Видео «Musical Box (Genesis)»

Видео клипы к песне подбираются автоматически сайтом youtube. Возможны некоторые несоответствия клипов песне.

↑ Спрятать рекламу ↑





F# pattern D#m pattern C# pattern E pattern
e----9-7-9--------6-4-6--------4-2-4----------0--------------------------
B---7-7-7-7------4-4-4-4------2-2-2-2--------0-0-------------------------
G-------------------------------------------1---1------------------------
D------------------------------------------2-----2-----------------------
A--9------------6------------4------------2-------2----------------------
E------------------------------------------------------------------------

Below is 8 beats (2 measures)
F# pattern 2
e------------------------------------------------------------------------
B----2---2---2---0----2---2---2------------------------------------------
G-----3---3---3---1----3---3---3-----------------------------------------
D------4---4---4---2----4---4---4----------------------------------------
A------------------------------------------------------------------------
E---2---2---2---0----2---2---2---2---------------------------------------

Putting it together:
(the chord name is the pattern name here. each "/" is 1 beat)

|F# / F# / |F# / F# / |D#m / D#m / |D#m / D#m /|
She's a lady, she's got time Oh
She's a lady, she is mine Oh

C# / C# / |E / E / |F# no. 2 :||
Brush back your hair, and let me get to know your face
Brush back your hair, and let me get to know your flesh.


Now Tony comes in on the organ.
|-|
Organ: |F# B C# F# |/. B C# F# C#| D#m. A#m D#m. A#m |
I've been waiting here for so long
You stand there with your fixed expression casting doubt on all I have to say


|C# G#m B / |F#. E F# E F#| E. F# E F# E |
and all this time has passed me by It hardly seems to
why don't you touch me, touch me why don't you touch me, touch me

____________
|1.
|B. E F# E B E |F# / / / :||
matter now
touch me now now now now now
________________
|2.
||: F# . E F# E B E |B . E F# E B E F# :|| repeat this a few times
now now now now now

ending

|B / / / |C# / / / |F# / / / | B / / / |C# / / / | F# / / B C# |F#

The rapidly alternating part flips between an F# and a C#, and
finally ends on F#

Тональность:

Это должно быть в ТОП-листе! - Топ-лист композиций



Назад
Рекомендуем посмотреть другие песни исполнителя «Genesis»:

  • Комменты Fb ()
  • Комменты ВК



Добавить в Избранное Браузера
Сохранить здесь Очистить


x

0


+
-

+
-

-

Авторизация





Зарегистрироваться

M

Дата и время

  • 15:43:25
     

Социальные ссылки


Наши приложения

  • Muzbank App Play Market
  • Muzbank Amazon App